  0
SECTION
  2
HEADER
  9
$ACADVER
  1
AC1009
  9
$INSBASE
 10
0
 20
0
 30
0
  9
$EXTMIN
 10
0
 20
0
  9
$EXTMAX
 10
420
 20
297
  9
$LIMMIN
 10
0
 20
0
  9
$LIMMAX
 10
420
 20
297
  9
$LTSCALE
 40
1
  0
ENDSEC
  0
SECTION
  2
TABLES
  0
TABLE
  2
LTYPE
 70
     9
  0
LTYPE
  2
CONTINUOUS
 70
    64
  3
実線
 72
    65
 73
     0
 40
0.0
  0
LTYPE
  2
DASHED1
 70
    64
  3
--  --  --  --  --  --  --  --  
 72
    65
 73
     2
 40
2.5
 49
1.25
 49
-1.25
  0
LTYPE
  2
DASHED2
 70
    64
  3
----    ----    ----    ----    
 72
    65
 73
     2
 40
5.0
 49
2.5
 49
-2.5
  0
LTYPE
  2
DASHED3
 70
    64
  3
------  ------  ------  ------  
 72
    65
 73
     2
 40
5.0
 49
3.75
 49
-1.25
  0
LTYPE
  2
CENTER1
 70
    64
  3
----- - ----- - ----- - ----- - 
 72
    65
 73
     4
 40
10.0
 49
6.25
 49
-1.25
 49
1.25
 49
-1.25
  0
LTYPE
  2
CENTER2
 70
    64
  3
----------  --  ----------  --  
 72
    65
 73
     4
 40
20.0
 49
12.5
 49
-2.5
 49
2.5
 49
-2.5
  0
LTYPE
  2
PHANTOM1
 70
    64
  3
--- - - --- - - --- - - --- - - 
 72
    65
 73
     6
 40
10.0
 49
3.25
 49
-1.25
 49
1.25
 49
-1.25
 49
1.25
 49
-1.25
  0
LTYPE
  2
PHANTOM2
 70
    64
  3
--------  -  -  --------  -  -  
 72
    65
 73
     6
 40
20.0
 49
10.0
 49
-2.5
 49
1.25
 49
-2.5
 49
1.25
 49
-2.5
  0
LTYPE
  2
DOT
 70
    64
  3
-   -   -   -   -   -   -   -   
 72
    65
 73
     2
 40
2.5
 49
0.625
 49
-1.875
  0
LTYPE
  2
DUMMY
 70
    64
  3
ダミー
 72
    65
 73
     0
 40
0.0
  0
LTYPE
  2
RAND1
 70
    64
  3
ランダム線1
 72
    65
 73
     4
 40
10.0
 49
1.0
 49
-2.0
 49
3.0
 49
-4.0
  0
LTYPE
  2
RAND2
 70
    64
  3
ランダム線2
 72
    65
 73
     4
 40
14.0
 49
2.0
 49
-3.0
 49
4.0
 49
-5.0
  0
LTYPE
  2
RAND3
 70
    64
  3
ランダム線3
 72
    65
 73
     4
 40
18.0
 49
3.0
 49
-4.0
 49
5.0
 49
-6.0
  0
LTYPE
  2
RAND4
 70
    64
  3
ランダム線4
 72
    65
 73
     4
 40
22.0
 49
4.0
 49
-5.0
 49
6.0
 49
-7.0
  0
LTYPE
  2
RAND5
 70
    64
  3
ランダム線5
 72
    65
 73
     4
 40
26.0
 49
5.0
 49
-6.0
 49
7.0
 49
-8.0
  0
LTYPE
  2
LONG1
 70
    64
  3
----------  --  ----------  --  
 72
    65
 73
     4
 40
40.0
 49
32.5
 49
-2.5
 49
2.5
 49
-2.5
  0
LTYPE
  2
LONG2
 70
    64
  3
--------  -  -  --------  -  -  
 72
    65
 73
     6
 40
40.0
 49
30.0
 49
-2.5
 49
1.25
 49
-2.5
 49
1.25
 49
-2.5
  0
LTYPE
  2
LONG3
 70
    64
  3
+++++++++++++++..+++++++++++++++
 72
    65
 73
     2
 40
40.0
 49
37.5
 49
-2.5
  0
LTYPE
  2
LONG4
 70
    64
  3
+++++++++++++++..+++++++++++++++
 72
    65
 73
     2
 40
80.0
 49
75.0
 49
-5.0
  0
LTYPE
  2
LONG5
 70
    64
  3
----------  --  ----------  --  
 72
    65
 73
     4
 40
60.0
 49
37.5
 49
-7.5
 49
7.5
 49
-7.5
  0
LTYPE
  2
dashed
 70
   64
  3
-------   -------------   ------
 72
   65
 73
    2
 40
7.5
 49
6
 49
-1.5
  0
LTYPE
  2
dashed_spaced
 70
   64
  3
----        --------        ----
 72
   65
 73
    2
 40
12
 49
6
 49
-6
  0
LTYPE
  2
long_dashed_dotted
 70
   64
  3
------------- --- --------------
 72
   65
 73
    4
 40
15.25
 49
12
 49
-1.5
 49
0.25
 49
-1.5
  0
LTYPE
  2
long_dashed_double-dotted
 70
   64
  3
----------- --- --- ------------
 72
   65
 73
    6
 40
17
 49
12
 49
-1.5
 49
0.25
 49
-1.5
 49
0.25
 49
-1.5
  0
LTYPE
  2
long_dashed_triplicate-dotted
 70
   64
  3
--------- --- --- --- ----------
 72
   65
 73
    8
 40
18.75
 49
12
 49
-1.5
 49
0.25
 49
-1.5
 49
0.25
 49
-1.5
 49
0.25
 49
-1.5
  0
LTYPE
  2
dotted
 70
   64
  3
   -       -       -       -    
 72
   65
 73
    2
 40
1.75
 49
0.25
 49
-1.5
  0
LTYPE
  2
chain
 70
   64
  3
-------------- -- --------------
 72
   65
 73
    4
 40
18.5
 49
12
 49
-1.5
 49
3.5
 49
-1.5
  0
LTYPE
  2
chain_double_dash
 70
   64
  3
------------ -- -- -------------
 72
   65
 73
    6
 40
23.5
 49
12
 49
-1.5
 49
3.5
 49
-1.5
 49
3.5
 49
-1.5
  0
LTYPE
  2
dashed_dotted
 70
   64
  3
-----------     -     ----------
 72
   65
 73
    4
 40
9.25
 49
6
 49
-1.5
 49
0.25
 49
-1.5
  0
LTYPE
  2
double-dashed_dotted
 70
   64
  3
------   -----------   -   -----
 72
   65
 73
    6
 40
16.75
 49
6
 49
-1.5
 49
6
 49
-1.5
 49
0.25
 49
-1.5
  0
LTYPE
  2
dashed_double-dotted
 70
   64
  3
---------    -    -    ---------
 72
   65
 73
    6
 40
11
 49
6
 49
-1.5
 49
0.25
 49
-1.5
 49
0.25
 49
-1.5
  0
LTYPE
  2
double-dashed_double-dotted
 70
   64
  3
-----   ---------   -   -   ----
 72
   65
 73
    8
 40
18.5
 49
6
 49
-1.5
 49
6
 49
-1.5
 49
0.25
 49
-1.5
 49
0.25
 49
-1.5
  0
LTYPE
  2
dashed_triplicate-dotted
 70
   64
  3
-------    -    -    -    ------
 72
   65
 73
    8
 40
12.75
 49
6
 49
-1.5
 49
0.25
 49
-1.5
 49
0.25
 49
-1.5
 49
0.25
 49
-1.5
  0
LTYPE
  2
double-dashed_triplicate-dotted
 70
   64
  3
-----  ---------  -  -  -  -----
 72
   65
 73
   10
 40
20.25
 49
6
 49
-1.5
 49
6
 49
-1.5
 49
0.25
 49
-1.5
 49
0.25
 49
-1.5
 49
0.25
 49
-1.5
  0
LTYPE
  2
undefined
 70
   64
  3
--------------------------------
 72
   65
 73
    0
 40
0
  0
ENDTAB
  0
TABLE
  2
STYLE
  5
3
100
AcDbSymbolTable
 70
     1
  0
STYLE
  5
10
100
AcDbSymbolTableRecord
100
AcDbTextStyleTableRecord
  2
STANDARD
 70
     0
 40
0.0
 41
1.0
 50
0.0
 71
     0
 42
0.2
  3
txt
  4
bigfont.shx
  0
STYLE
  5
26
100
AcDbSymbolTableRecord
100
AcDbTextStyleTableRecord
  2
TATEGAKI
 70
    68
 40
0.0
 41
1.0
 50
0.0
 71
     0
 42
1.0
  3
txt
  4
bigfont.shx
  0
ENDTAB
  0
TABLE
  2
LAYER
 70
    2
  0
LAYER
  2
_0-0_0
 70
   64
 62
    7
  6
CONTINUOUS
  0
LAYER
  2
ADD_LINE
 70
   64
 62
    7
  6
CONTINUOUS
  0
ENDTAB
  0
ENDSEC
  0
SECTION
  2
BLOCKS
  0
ENDSEC
  0
SECTION
  2
ENTITIES
  0
LINE
  8
_0-0_0
  6
CONTINUOUS
 62
    7
 10
954.23363201415543
 20
216.63512884833816
 11
954.23363201415543
 21
245.03512884833813
  0
LINE
  8
_0-0_0
  6
CONTINUOUS
 62
    7
 10
944.23363201415543
 20
54.535128848338147
 11
750.73363201415543
 21
54.535128848338147
  0
LINE
  8
_0-0_0
  6
CONTINUOUS
 62
    7
 10
714.23363201415543
 20
197.03512884833816
 11
954.23363201415543
 21
197.03512884833816
  0
LINE
  8
_0-0_0
  6
CONTINUOUS
 62
    7
 10
954.23363201415543
 20
264.63512884833813
 11
714.23363201415543
 21
264.63512884833813
  0
LINE
  8
_0-0_0
  6
CONTINUOUS
 62
    7
 10
714.23363201415543
 20
264.63512884833813
 11
714.23363201415543
 21
197.03512884833816
  0
LINE
  8
_0-0_0
  6
CONTINUOUS
 62
    7
 10
944.23363201415543
 20
7.1351288483381552
 11
944.23363201415543
 21
54.535128848338147
  0
LINE
  8
_0-0_0
  6
CONTINUOUS
 62
    7
 10
944.23363201415543
 20
7.1351288483381552
 11
954.23363201415543
 21
7.1351288483381552
  0
LINE
  8
_0-0_0
  6
CONTINUOUS
 62
    7
 10
714.23363201415543
 20
8.7351288483381495
 11
724.23363201415543
 21
8.7351288483381495
  0
LINE
  8
_0-0_0
  6
CONTINUOUS
 62
    7
 10
954.23363201415543
 20
7.1351288483381552
 11
954.23363201415543
 21
18.73512884833815
  0
LINE
  8
_0-0_0
  6
CONTINUOUS
 62
    7
 10
952.63363201415541
 20
8.7351288483381495
 11
952.63363201415541
 21
17.135128848338155
  0
LINE
  8
_0-0_0
  6
CONTINUOUS
 62
    7
 10
945.83363201415546
 20
8.7351288483381495
 11
952.63363201415541
 21
8.7351288483381495
  0
LINE
  8
_0-0_0
  6
CONTINUOUS
 62
    7
 10
945.83363201415546
 20
8.7351288483381495
 11
945.83363201415546
 21
17.135128848338155
  0
LINE
  8
_0-0_0
  6
CONTINUOUS
 62
    7
 10
714.23363201415543
 20
7.1351288483381552
 11
725.83363201415546
 21
7.1351288483381552
  0
LINE
  8
_0-0_0
  6
CONTINUOUS
 62
    7
 10
725.83363201415546
 20
17.135128848338155
 11
952.63363201415541
 21
17.135128848338155
  0
LINE
  8
_0-0_0
  6
CONTINUOUS
 62
    7
 10
714.23363201415543
 20
7.1351288483381552
 11
714.23363201415543
 21
8.7351288483381495
  0
LINE
  8
_0-0_0
  6
CONTINUOUS
 62
    7
 10
724.23363201415543
 20
18.73512884833815
 11
725.83363201415546
 21
18.73512884833815
  0
LINE
  8
_0-0_0
  6
CONTINUOUS
 62
    7
 10
750.73363201415543
 20
18.73512884833815
 11
954.23363201415543
 21
18.73512884833815
  0
LINE
  8
_0-0_0
  6
CONTINUOUS
 62
    7
 10
725.83363201415546
 20
18.735128848338178
 11
725.83363201415546
 21
7.1351288483381552
  0
LINE
  8
_0-0_0
  6
CONTINUOUS
 62
    7
 10
724.23363201415543
 20
18.735128848338178
 11
724.23363201415543
 21
8.7351288483381495
  0
LINE
  8
_0-0_0
  6
CONTINUOUS
 62
    7
 10
725.83363201415546
 20
18.735128848338178
 11
725.83363201415546
 21
33.735128848338164
  0
LINE
  8
_0-0_0
  6
CONTINUOUS
 62
    7
 10
725.83363201415546
 20
33.735128848338164
 11
740.83363201415546
 21
33.735128848338164
  0
LINE
  8
_0-0_0
  6
CONTINUOUS
 62
    7
 10
750.73363201415543
 20
20.335128848338144
 11
735.72227684072016
 21
20.335128848338144
  0
LINE
  8
_0-0_0
  6
CONTINUOUS
 62
    7
 10
750.73363201415543
 20
54.535128848338147
 11
740.83363201415546
 21
27.335102395737394
  0
LINE
  8
_0-0_0
  6
CONTINUOUS
 62
    7
 10
740.83363201415546
 20
33.735128848338164
 11
740.83363201415546
 21
27.335102395737394
  0
LINE
  8
_0-0_0
  6
CONTINUOUS
 62
    7
 10
735.72227684072016
 20
20.335128848338144
 11
735.72227684072016
 21
27.335102395737394
  0
LINE
  8
_0-0_0
  6
CONTINUOUS
 62
    7
 10
740.83363201415546
 20
27.335102395737394
 11
735.72227684072016
 21
27.335102395737394
  0
LINE
  8
_0-0_0
  6
CONTINUOUS
 62
    7
 10
738.72227684072016
 20
20.335128848338144
 11
738.72227684072016
 21
27.335102395737394
  0
LINE
  8
_0-0_0
  6
CONTINUOUS
 62
    7
 10
750.73363201415543
 20
17.135128848338155
 11
750.73363201415543
 21
20.335128848338144
  0
LINE
  8
_0-0_0
  6
CONTINUOUS
 62
    7
 10
750.73363201415543
 20
197.03512884833816
 11
750.73363201415543
 21
264.63512884833813
  0
LINE
  8
_0-0_0
  6
CONTINUOUS
 62
    7
 10
944.23363201415543
 20
197.03512884833816
 11
944.23363201415543
 21
264.63512884833813
  0
CIRCLE
  8
_0-0_0
  6
CONTINUOUS
 62
    7
 10
949.73363201415543
 20
254.83512884833814
 40
2.5
  0
CIRCLE
  8
_0-0_0
  6
CONTINUOUS
 62
    7
 10
949.73363201415543
 20
206.83512884833814
 40
2.5
  0
LINE
  8
_0-0_0
  6
CONTINUOUS
 62
    7
 10
718.73363201415543
 20
254.83512884833814
 11
718.73363201415543
 21
259.83512884833817
  0
LINE
  8
_0-0_0
  6
CONTINUOUS
 62
    7
 10
718.73363201415543
 20
254.83512884833814
 11
723.73363201415543
 21
254.83512884833814
  0
LINE
  8
_0-0_0
  6
CONTINUOUS
 62
    7
 10
718.73363201415543
 20
254.83512884833814
 11
718.73363201415543
 21
249.83512884833814
  0
LINE
  8
_0-0_0
  6
CONTINUOUS
 62
    7
 10
718.73363201415543
 20
254.83512884833814
 11
713.73363201415543
 21
254.83512884833814
  0
LINE
  8
_0-0_0
  6
CONTINUOUS
 62
    7
 10
949.73363201415543
 20
254.83512884833814
 11
949.73363201415543
 21
259.83512884833817
  0
LINE
  8
_0-0_0
  6
CONTINUOUS
 62
    7
 10
949.73363201415543
 20
254.83512884833814
 11
954.73363201415543
 21
254.83512884833814
  0
LINE
  8
_0-0_0
  6
CONTINUOUS
 62
    7
 10
949.73363201415543
 20
254.83512884833814
 11
949.73363201415543
 21
249.83512884833814
  0
LINE
  8
_0-0_0
  6
CONTINUOUS
 62
    7
 10
949.73363201415543
 20
254.83512884833814
 11
944.73363201415543
 21
254.83512884833814
  0
LINE
  8
_0-0_0
  6
CONTINUOUS
 62
    7
 10
949.73363201415543
 20
206.83512884833814
 11
954.73363201415543
 21
206.83512884833814
  0
LINE
  8
_0-0_0
  6
CONTINUOUS
 62
    7
 10
949.73363201415543
 20
206.83512884833814
 11
949.73363201415543
 21
201.83512884833814
  0
LINE
  8
_0-0_0
  6
CONTINUOUS
 62
    7
 10
949.73363201415543
 20
206.83512884833814
 11
949.73363201415543
 21
211.83512884833814
  0
LINE
  8
_0-0_0
  6
CONTINUOUS
 62
    7
 10
949.73363201415543
 20
206.83512884833814
 11
944.73363201415543
 21
206.83512884833814
  0
LINE
  8
_0-0_0
  6
CONTINUOUS
 62
    7
 10
718.73363201415543
 20
206.83512884833814
 11
713.73363201415543
 21
206.83512884833814
  0
LINE
  8
_0-0_0
  6
CONTINUOUS
 62
    7
 10
718.73363201415543
 20
206.83512884833814
 11
718.73363201415543
 21
211.83512884833814
  0
LINE
  8
_0-0_0
  6
CONTINUOUS
 62
    7
 10
718.73363201415543
 20
206.83512884833814
 11
723.73363201415543
 21
206.83512884833814
  0
LINE
  8
_0-0_0
  6
CONTINUOUS
 62
    7
 10
718.73363201415543
 20
206.83512884833814
 11
718.73363201415543
 21
201.83512884833814
  0
LINE
  8
_0-0_0
  6
CONTINUOUS
 62
    7
 10
718.73363201415543
 20
230.83512884833814
 11
718.73363201415543
 21
235.83512884833814
  0
LINE
  8
_0-0_0
  6
CONTINUOUS
 62
    7
 10
718.73363201415543
 20
230.83512884833814
 11
713.73363201415543
 21
230.83512884833814
  0
LINE
  8
_0-0_0
  6
CONTINUOUS
 62
    7
 10
718.73363201415543
 20
230.83512884833814
 11
718.73363201415543
 21
225.83512884833814
  0
LINE
  8
_0-0_0
  6
CONTINUOUS
 62
    7
 10
718.73363201415543
 20
230.83512884833814
 11
723.73363201415543
 21
230.83512884833814
  0
LINE
  8
_0-0_0
  6
CONTINUOUS
 62
    7
 10
718.73363201415543
 20
257.33512884833817
 11
714.23363201415543
 21
257.33512884833817
  0
LINE
  8
_0-0_0
  6
CONTINUOUS
 62
    7
 10
718.73363201415543
 20
252.33512884833814
 11
714.23363201415543
 21
252.33512884833814
  0
LINE
  8
_0-0_0
  6
CONTINUOUS
 62
    7
 10
718.73363201415543
 20
233.33512884833814
 11
714.23363201415543
 21
233.33512884833814
  0
LINE
  8
_0-0_0
  6
CONTINUOUS
 62
    7
 10
718.73363201415543
 20
209.33512884833814
 11
714.23363201415543
 21
209.33512884833814
  0
LINE
  8
_0-0_0
  6
CONTINUOUS
 62
    7
 10
718.73363201415543
 20
204.33512884833814
 11
714.23363201415543
 21
204.33512884833814
  0
ARC
  8
_0-0_0
  6
CONTINUOUS
 62
    7
 10
718.73363201415543
 20
254.83512884833814
 40
2.5
 50
270
 51
90
  0
ARC
  8
_0-0_0
  6
CONTINUOUS
 62
    7
 10
718.73363201415543
 20
230.83512884833814
 40
2.5
 50
270
 51
90
  0
ARC
  8
_0-0_0
  6
CONTINUOUS
 62
    7
 10
718.73363201415543
 20
206.83512884833814
 40
2.5
 50
270
 51
90
  0
LINE
  8
_0-0_0
  6
CONTINUOUS
 62
    7
 10
718.73363201415543
 20
228.33512884833814
 11
714.23363201415543
 21
228.33512884833814
  0
LINE
  8
_0-0_0
  6
CONTINUOUS
 62
    7
 10
569.31466362813217
 20
197.03512884833816
 11
569.31466362813217
 21
264.63512884833813
  0
LINE
  8
_0-0_0
  6
CONTINUOUS
 62
    7
 10
544.31466362813217
 20
197.03512884833816
 11
544.31466362813217
 21
264.63512884833813
  0
LINE
  8
_0-0_0
  6
CONTINUOUS
 62
    7
 10
521.91466362813208
 20
263.68512884833814
 11
521.91466362813208
 21
197.98512884833815
  0
LINE
  8
_0-0_0
  6
CONTINUOUS
 62
    7
 10
569.31466362813217
 20
264.63512884833813
 11
544.31466362813217
 21
264.63512884833813
  0
LINE
  8
_0-0_0
  6
CONTINUOUS
 62
    7
 10
544.31466362813217
 20
197.03512884833816
 11
569.31466362813217
 21
197.03512884833816
  0
LINE
  8
_0-0_0
  6
CONTINUOUS
 62
    7
 10
521.91466362813208
 20
263.68512884833814
 11
521.91466362813208
 21
197.98512884833815
  0
LINE
  8
_0-0_0
  6
CONTINUOUS
 62
    7
 10
534.31466362813217
 20
197.98512884833815
 11
534.31466362813217
 21
263.68512884833814
  0
LINE
  8
_0-0_0
  6
CONTINUOUS
 62
    7
 10
952.23363201415543
 20
246.63512884833813
 11
944.23363201415543
 21
246.63512884833813
  0
LINE
  8
_0-0_0
  6
CONTINUOUS
 62
    7
 10
954.23363201415543
 20
248.63512884833813
 11
954.23363201415543
 21
264.63512884833813
  0
ARC
  8
_0-0_0
  6
CONTINUOUS
 62
    7
 10
952.23363201415543
 20
248.63512884833813
 40
2
 50
270
 51
0
  0
LINE
  8
_0-0_0
  6
CONTINUOUS
 62
    7
 10
952.23363201415543
 20
215.03512884833816
 11
944.23363201415543
 21
215.03512884833816
  0
LINE
  8
_0-0_0
  6
CONTINUOUS
 62
    7
 10
954.23363201415543
 20
213.03512884833816
 11
954.23363201415543
 21
197.03512884833816
  0
ARC
  8
_0-0_0
  6
CONTINUOUS
 62
    7
 10
952.23363201415543
 20
213.03512884833816
 40
2
 50
0
 51
90
  0
LINE
  8
_0-0_0
  6
CONTINUOUS
 62
    7
 10
944.23363201415543
 20
216.63512884833816
 11
954.23363201415543
 21
216.63512884833816
  0
LINE
  8
_0-0_0
  6
CONTINUOUS
 62
    7
 10
944.23363201415543
 20
245.03512884833813
 11
954.23363201415543
 21
245.03512884833813
  0
LINE
  8
_0-0_0
  6
CONTINUOUS
 62
    7
 10
569.31466362813217
 20
263.68512884833814
 11
521.91466362813208
 21
263.68512884833814
  0
LINE
  8
_0-0_0
  6
CONTINUOUS
 62
    7
 10
521.91466362813208
 20
197.98512884833815
 11
569.31466362813217
 21
197.98512884833815
  0
LINE
  8
_0-0_0
  6
CONTINUOUS
 62
    7
 10
740.83363201415546
 20
197.03512884833816
 11
740.83363201415546
 21
264.63512884833813
  0
LINE
  8
_0-0_0
  6
CONTINUOUS
 62
    7
 10
559.31466362813217
 20
197.98512884833815
 11
559.31466362813217
 21
263.68512884833814
  0
LINE
  8
_0-0_0
  6
CONTINUOUS
 62
    7
 10
300.07145656121747
 20
19.000000167537394
 11
415.00000418843445
 21
19.000000167537394
  0
LINE
  8
_0-0_0
  6
CONTINUOUS
 62
    7
 10
415.00000418843445
 20
291.9999992396381
 11
4.9999958115656113
 21
291.9999992396381
  0
LINE
  8
_0-0_0
  6
CONTINUOUS
 62
    7
 10
4.9999958115656113
 20
291.9999992396381
 11
4.9999958115656113
 21
5.0000007603619565
  0
LINE
  8
_0-0_0
  6
CONTINUOUS
 62
    7
 10
4.9999958115656113
 20
5.0000007603619565
 11
415.00000418843445
 21
5.0000007603619565
  0
LINE
  8
_0-0_0
  6
CONTINUOUS
 62
    7
 10
415.00000418843445
 20
5.0000007603619565
 11
415.00000418843445
 21
291.9999992396381
  0
LINE
  8
_0-0_0
  6
CONTINUOUS
 62
    7
 10
300.07145656121747
 20
12.000001043886755
 11
415.00000418843445
 21
12.000001043886755
  0
TEXT
  8
_0-0_0
 62
    7
 10
306.71946104152789
 20
20.644929073952341
 40
3
 41
1
 50
0
  1
品名
  0
TEXT
  8
_0-0_0
 62
    7
 10
325.0044844988231
 20
20.644929073952341
 40
3
 41
1
 50
0
  1
導光板ベースライト照明 LGPシリーズ
  0
TEXT
  8
_0-0_0
 62
    7
 10
306.71946104152789
 20
13.645600357571169
 40
3
 41
1
 50
0
  1
品番
  0
TEXT
  8
_0-0_0
 62
    7
 10
315.89425995543218
 20
7.0028239198633173
 40
3
 41
1
 50
0
  1
山田医療照明株式会社
  0
LINE
  8
_0-0_0
  6
CONTINUOUS
 62
    7
 10
322.28521817439332
 20
26.000000064437472
 11
322.28521817439332
 21
12.000001043886755
  0
LINE
  8
_0-0_0
  6
CONTINUOUS
 62
    7
 10
285.07145656121747
 20
5.0000007603619565
 11
285.07145656121747
 21
26.000000064437472
  0
LINE
  8
_0-0_0
  6
CONTINUOUS
 62
    7
 10
285.07145656121747
 20
26.000000064437472
 11
415.00000418843445
 21
26.000000064437472
  0
LINE
  8
_0-0_0
  6
CONTINUOUS
 62
    7
 10
300.07145656121747
 20
5.0000007603619565
 11
300.07145656121747
 21
26.000000064437472
  0
LINE
  8
_0-0_0
  6
CONTINUOUS
 62
    7
 10
300.07145656121747
 20
19.000000167537394
 11
285.07145656121747
 21
19.000000167537394
  0
LINE
  8
_0-0_0
  6
CENTER2
 62
    7
 10
363.28544181382404
 20
10.496896138062368
 11
363.28544181382404
 21
5.3953778937056427
  0
LINE
  8
_0-0_0
  6
CENTER2
 62
    7
 10
360.76034316781454
 20
7.9461372091963653
 11
365.81054045983319
 21
7.9461372091963653
  0
LINE
  8
_0-0_0
  6
CENTER2
 62
    7
 10
366.28943549256132
 20
7.9461372091963653
 11
374.34362646331715
 21
7.9461372091963653
  0
LINE
  8
_0-0_0
  6
CONTINUOUS
 62
    7
 10
366.68125645170403
 20
9.1961366936967295
 11
366.68125645170403
 21
6.6961369514465332
  0
LINE
  8
_0-0_0
  6
CONTINUOUS
 62
    7
 10
366.68125645170403
 20
6.6961369514465332
 11
373.68125480210517
 21
5.8461370854764425
  0
LINE
  8
_0-0_0
  6
CONTINUOUS
 62
    7
 10
373.68125480210517
 20
5.8461370854764425
 11
373.68125480210517
 21
10.04613733291626
  0
LINE
  8
_0-0_0
  6
CONTINUOUS
 62
    7
 10
373.68125480210517
 20
10.04613733291626
 11
366.68125645170403
 21
9.1961366936967295
  0
CIRCLE
  8
_0-0_0
  6
CONTINUOUS
 62
    7
 10
363.28544181382404
 20
7.9461372091963653
 40
1.2499999677812721
  0
CIRCLE
  8
_0-0_0
  6
CONTINUOUS
 62
    7
 10
363.28544181382404
 20
7.9461372091963653
 40
2.0999999304075501
  0
TEXT
  8
_0-0_0
 62
    7
 10
375.14349630997037
 20
7.3174908225600745
 40
3
 41
1
 50
0
  1
Unit ： mm
  0
TEXT
  8
_0-0_0
 62
    7
 10
9.4747716671712681
 20
64.735800177963327
 40
3
 41
1
 50
0
  1
1) 取付け用ベース板金を吊りボルト(M10ナット3種)に固定
  0
TEXT
  8
_0-0_0
 62
    7
 10
9.4747628521276113
 20
59.796901318166007
 40
3
 41
1
 50
0
  1
2) 導光板ベースライト本体の吊り下げチェーンをベース板金の所定部に引っ掛ける
  0
TEXT
  8
_0-0_0
 62
    7
 10
9.4747644759514458
 20
54.858014830359835
 40
3
 41
1
 50
0
  1
3) 導光板ベースライト本体のコーナー4ヶ所をベース板金にビス留め
  0
TEXT
  8
_0-0_0
 62
    7
 10
170.84384491636951
 20
54.602762095325019
 40
3
 41
1
 50
0
  1
(2ヶ所)
  0
TEXT
  8
_0-0_0
 62
    7
 10
12.215448083104434
 20
74.512809471803067
 40
3
 41
1
 50
0
  1
取付け方法
  0
TEXT
  8
_0-0_0
 62
    7
 10
9.474769063898151
 20
20.285800136723367
 40
3
 41
1
 50
0
  1
<調光率>　PWM調光、5-100%
  0
TEXT
  8
_0-0_0
 62
    7
 10
9.4747924160314199
 20
15.346913648917166
 40
3
 41
1
 50
0
  1
<推奨調光コントローラー>　パナソニック製 NQ21535Z、NQ21532Z、NQ21595Z、NQ21592Z
  0
TEXT
  8
_0-0_0
 62
    7
 10
9.4747700691224566
 20
10.408020975115448
 40
3
 41
1
 50
0
  1
                                      NQ21585Z、NQ21582Z
  0
LINE
  8
_0-0_0
  6
CENTER2
 62
    7
 10
300.79390661136529
 20
213.93105918718916
 11
300.79390661136529
 21
208.29371194003966
  0
LINE
  8
_0-0_0
  6
CENTER2
 62
    7
 10
330.79390661136529
 20
213.93105918718916
 11
330.79390661136529
 21
208.29371194003966
  0
LINE
  8
_0-0_0
  6
CONTINUOUS
 62
    7
 10
330.29390496176677
 20
211.82507411275927
 11
331.29390826096414
 21
211.82507411275927
  0
LINE
  8
_0-0_0
  6
CONTINUOUS
 62
    7
 10
330.29390496176677
 20
211.82507411275927
 11
330.29390496176677
 21
210.92508598987067
  0
LINE
  8
_0-0_0
  6
CONTINUOUS
 62
    7
 10
330.29390496176677
 20
210.92508598987067
 11
331.29390826096414
 21
210.92508598987067
  0
LINE
  8
_0-0_0
  6
CONTINUOUS
 62
    7
 10
331.29390826096414
 20
211.82507411275927
 11
331.29390826096414
 21
210.92508598987067
  0
LINE
  8
_0-0_0
  6
CENTER2
 62
    7
 10
270.7939066113654
 20
213.93105918718916
 11
270.7939066113654
 21
208.29371194003966
  0
LINE
  8
_0-0_0
  6
CONTINUOUS
 62
    7
 10
270.29390496176666
 20
211.82507411275927
 11
270.29390496176666
 21
210.92508598987067
  0
LINE
  8
_0-0_0
  6
CONTINUOUS
 62
    7
 10
271.29390826096426
 20
210.92508598987067
 11
270.29390496176666
 21
210.92508598987067
  0
LINE
  8
_0-0_0
  6
CONTINUOUS
 62
    7
 10
271.29390826096426
 20
211.82507411275927
 11
271.29390826096426
 21
210.92508598987067
  0
LINE
  8
_0-0_0
  6
CONTINUOUS
 62
    7
 10
271.29390826096426
 20
211.82507411275927
 11
270.29390496176666
 21
211.82507411275927
  0
LINE
  8
_0-0_0
  6
CONTINUOUS
 62
    7
 10
242.62389730762803
 20
211.32507246316047
 11
242.62389730762803
 21
211.52507807179646
  0
LINE
  8
_0-0_0
  6
CONTINUOUS
 62
    7
 10
242.06389150104022
 20
211.52507807179646
 11
242.06389150104022
 21
211.32507246316047
  0
LINE
  8
_0-0_0
  6
CONTINUOUS
 62
    7
 10
359.52389697770832
 20
211.32507246316047
 11
359.52389697770832
 21
211.52507807179646
  0
LINE
  8
_0-0_0
  6
CONTINUOUS
 62
    7
 10
358.96391591510269
 20
211.52507807179646
 11
358.96391591510269
 21
211.32507246316047
  0
LINE
  8
_0-0_0
  6
CONTINUOUS
 62
    7
 10
355.74390727120488
 20
211.02507642219766
 11
245.84390595152584
 21
211.02507642219766
  0
LINE
  8
_0-0_0
  6
CONTINUOUS
 62
    7
 10
245.64390034288982
 20
211.22508203083356
 11
245.64390034288982
 21
211.72508368043245
  0
LINE
  8
_0-0_0
  6
CONTINUOUS
 62
    7
 10
355.94391287984092
 20
211.72508368043245
 11
245.64390034288982
 21
211.72508368043245
  0
LINE
  8
_0-0_0
  6
CONTINUOUS
 62
    7
 10
355.94391287984092
 20
211.22508203083356
 11
355.94391287984092
 21
211.72508368043245
  0
LINE
  8
_0-0_0
  6
CONTINUOUS
 62
    7
 10
356.96390931670737
 20
211.82304510621367
 11
355.94391287984092
 21
211.82304510621367
  0
LINE
  8
_0-0_0
  6
CONTINUOUS
 62
    7
 10
245.64390034288982
 20
211.72508368043245
 11
245.64390034288982
 21
211.82304510621367
  0
LINE
  8
_0-0_0
  6
CONTINUOUS
 62
    7
 10
245.64390034288982
 20
211.82304510621367
 11
244.62390390602332
 21
211.82304510621367
  0
LINE
  8
_0-0_0
  6
CONTINUOUS
 62
    7
 10
244.64389704369222
 20
211.82507411275927
 11
356.94391617903852
 21
211.82507411275927
  0
LINE
  8
_0-0_0
  6
CONTINUOUS
 62
    7
 10
355.94391287984092
 20
211.82304510621367
 11
355.94391287984092
 21
211.72508368043245
  0
LINE
  8
_0-0_0
  6
CONTINUOUS
 62
    7
 10
357.04390661136529
 20
211.37508005131505
 11
357.04390661136529
 21
211.72508368043245
  0
LINE
  8
_0-0_0
  6
CONTINUOUS
 62
    7
 10
359.64390529168622
 20
211.32507246316047
 11
357.09391419951999
 21
211.32507246316047
  0
LINE
  8
_0-0_0
  6
CONTINUOUS
 62
    7
 10
359.64390529168622
 20
211.22508203083356
 11
359.64390529168622
 21
211.32507246316047
  0
LINE
  8
_0-0_0
  6
CONTINUOUS
 62
    7
 10
357.04390661136529
 20
211.22508203083356
 11
359.64390529168622
 21
211.22508203083356
  0
LINE
  8
_0-0_0
  6
CONTINUOUS
 62
    7
 10
356.94391617903852
 20
211.67507609227786
 11
356.94391617903852
 21
211.32507246316047
  0
LINE
  8
_0-0_0
  6
CONTINUOUS
 62
    7
 10
355.94391287984092
 20
211.72508368043245
 11
356.89390859088383
 21
211.72508368043245
  0
LINE
  8
_0-0_0
  6
CONTINUOUS
 62
    7
 10
244.64389704369222
 20
211.32507246316047
 11
244.64389704369222
 21
211.67507609227786
  0
LINE
  8
_0-0_0
  6
CONTINUOUS
 62
    7
 10
241.94390793104444
 20
211.22508203083356
 11
244.54390661136532
 21
211.22508203083356
  0
LINE
  8
_0-0_0
  6
CONTINUOUS
 62
    7
 10
241.94390793104444
 20
211.32507246316047
 11
241.94390793104444
 21
211.22508203083356
  0
LINE
  8
_0-0_0
  6
CONTINUOUS
 62
    7
 10
244.49389902321082
 20
211.32507246316047
 11
241.94390793104444
 21
211.32507246316047
  0
LINE
  8
_0-0_0
  6
CONTINUOUS
 62
    7
 10
244.54390661136532
 20
211.72508368043245
 11
244.54390661136532
 21
211.37508005131505
  0
LINE
  8
_0-0_0
  6
CONTINUOUS
 62
    7
 10
244.69390463184683
 20
211.72508368043245
 11
245.64390034288982
 21
211.72508368043245
  0
LINE
  8
_0-0_0
  6
CONTINUOUS
 62
    7
 10
359.64390529168622
 20
211.32507246316047
 11
359.94390133264926
 21
211.32507246316047
  0
LINE
  8
_0-0_0
  6
CONTINUOUS
 62
    7
 10
359.94390133264926
 20
211.32507246316047
 11
359.94390133264926
 21
211.22508203083356
  0
LINE
  8
_0-0_0
  6
CONTINUOUS
 62
    7
 10
359.94390133264926
 20
211.22508203083356
 11
359.64390529168622
 21
211.22508203083356
  0
LINE
  8
_0-0_0
  6
CONTINUOUS
 62
    7
 10
241.64391189008163
 20
211.22508203083356
 11
241.64391189008163
 21
211.32507246316047
  0
LINE
  8
_0-0_0
  6
CONTINUOUS
 62
    7
 10
241.64391189008163
 20
211.32507246316047
 11
241.94390793104444
 21
211.32507246316047
  0
LINE
  8
_0-0_0
  6
CONTINUOUS
 62
    7
 10
241.94390793104444
 20
211.22508203083356
 11
241.64391189008163
 21
211.22508203083356
  0
LINE
  8
_0-0_0
  6
CONTINUOUS
 62
    7
 10
242.34389440433412
 20
211.52507807179646
 11
242.62389730762803
 21
211.52507807179646
  0
LINE
  8
_0-0_0
  6
CONTINUOUS
 62
    7
 10
242.06389150104022
 20
211.52507807179646
 11
242.34389440433412
 21
211.52507807179646
  0
LINE
  8
_0-0_0
  6
CONTINUOUS
 62
    7
 10
359.24389407441447
 20
211.52507807179646
 11
359.52389697770832
 21
211.52507807179646
  0
LINE
  8
_0-0_0
  6
CONTINUOUS
 62
    7
 10
358.96391591510269
 20
211.52507807179646
 11
359.24389407441447
 21
211.52507807179646
  0
LINE
  8
_0-0_0
  6
CONTINUOUS
 62
    7
 10
352.19391287984092
 20
211.02507642219766
 11
352.19391287984092
 21
210.92508598987067
  0
LINE
  8
_0-0_0
  6
CONTINUOUS
 62
    7
 10
352.19391287984092
 20
210.92508598987067
 11
352.09389770353175
 21
210.92508598987067
  0
LINE
  8
_0-0_0
  6
CONTINUOUS
 62
    7
 10
352.09389770353175
 20
210.92508598987067
 11
352.09389770353175
 21
211.02507642219766
  0
LINE
  8
_0-0_0
  6
CONTINUOUS
 62
    7
 10
249.49389077521673
 20
210.92508598987067
 11
249.39390034288982
 21
210.92508598987067
  0
LINE
  8
_0-0_0
  6
CONTINUOUS
 62
    7
 10
249.49389077521673
 20
211.02507642219766
 11
249.49389077521673
 21
210.92508598987067
  0
LINE
  8
_0-0_0
  6
CONTINUOUS
 62
    7
 10
249.39390034288982
 20
210.92508598987067
 11
249.39390034288982
 21
211.02507642219766
  0
LINE
  8
_0-0_0
  6
CONTINUOUS
 62
    7
 10
326.71882017238738
 20
214.82508401035216
 11
325.91498716457488
 21
211.82507411275927
  0
LINE
  8
_0-0_0
  6
CONTINUOUS
 62
    7
 10
325.91498716457488
 20
211.82507411275927
 11
325.11112941277997
 21
214.82508401035216
  0
LINE
  8
_0-0_0
  6
CONTINUOUS
 62
    7
 10
325.91498716457488
 20
211.82507411275927
 11
325.91498716457488
 21
214.82508401035216
  0
LINE
  8
_0-0_0
  6
CONTINUOUS
 62
    7
 10
325.11112941277997
 20
207.92507609227786
 11
325.91498716457488
 21
210.92508598987067
  0
LINE
  8
_0-0_0
  6
CONTINUOUS
 62
    7
 10
325.91498716457488
 20
210.92508598987067
 11
326.71882017238738
 21
207.92507609227786
  0
LINE
  8
_0-0_0
  6
CONTINUOUS
 62
    7
 10
325.91498716457488
 20
210.92508598987067
 11
325.91498716457488
 21
207.92507609227786
  0
LINE
  8
_0-0_0
  6
CONTINUOUS
 62
    7
 10
330.29390496176677
 20
211.82507411275927
 11
324.91498386537728
 21
211.82507411275927
  0
LINE
  8
_0-0_0
  6
CONTINUOUS
 62
    7
 10
330.29390496176677
 20
210.92508598987067
 11
324.91498386537728
 21
210.92508598987067
  0
LINE
  8
_0-0_0
  6
CONTINUOUS
 62
    7
 10
325.91498716457488
 20
211.82507411275927
 11
325.91498716457488
 21
229.58425083098132
  0
LINE
  8
_0-0_0
  6
CONTINUOUS
 62
    7
 10
325.91498716457488
 20
211.82507411275927
 11
325.91498716457488
 21
210.92508598987067
  0
LINE
  8
_0-0_0
  6
CONTINUOUS
 62
    7
 10
325.91498716457488
 20
210.92508598987067
 11
325.91498716457488
 21
204.92506619468494
  0
LINE
  8
_0-0_0
  6
CONTINUOUS
 62
    7
 10
263.79390826096414
 20
84.261605798253356
 11
260.79389836337134
 21
85.065451178056975
  0
LINE
  8
_0-0_0
  6
CONTINUOUS
 62
    7
 10
260.79389836337134
 20
85.065451178056975
 11
263.79390826096414
 21
85.869308929851769
  0
LINE
  8
_0-0_0
  6
CONTINUOUS
 62
    7
 10
260.79389836337134
 20
85.065451178056975
 11
263.79390826096414
 21
85.065451178056975
  0
LINE
  8
_0-0_0
  6
CONTINUOUS
 62
    7
 10
337.79390496176654
 20
85.869308929851769
 11
340.79391485935946
 21
85.065451178056975
  0
LINE
  8
_0-0_0
  6
CONTINUOUS
 62
    7
 10
340.79391485935946
 20
85.065451178056975
 11
337.79390496176654
 21
84.261605798253356
  0
LINE
  8
_0-0_0
  6
CONTINUOUS
 62
    7
 10
340.79391485935946
 20
85.065451178056975
 11
337.79390496176654
 21
85.065451178056975
  0
LINE
  8
_0-0_0
  6
CONTINUOUS
 62
    7
 10
260.79389836337134
 20
121.28214165393325
 11
260.79389836337134
 21
84.065460250850464
  0
LINE
  8
_0-0_0
  6
CONTINUOUS
 62
    7
 10
340.79391485935946
 20
121.28214165393325
 11
340.79391485935946
 21
84.065460250850464
  0
LINE
  8
_0-0_0
  6
CONTINUOUS
 62
    7
 10
260.79389836337134
 20
85.065451178056975
 11
340.79391485935946
 21
85.065451178056975
  0
LINE
  8
_0-0_0
  6
CONTINUOUS
 62
    7
 10
245.34390430192704
 20
68.203645906599007
 11
242.34389440433412
 21
69.007491286402626
  0
LINE
  8
_0-0_0
  6
CONTINUOUS
 62
    7
 10
242.34389440433412
 20
69.007491286402626
 11
245.34390430192704
 21
69.811336666206273
  0
LINE
  8
_0-0_0
  6
CONTINUOUS
 62
    7
 10
242.34389440433412
 20
69.007491286402626
 11
245.34390430192704
 21
69.007491286402626
  0
LINE
  8
_0-0_0
  6
CONTINUOUS
 62
    7
 10
356.24390892080373
 20
69.811336666206273
 11
359.24389407441447
 21
69.007491286402626
  0
LINE
  8
_0-0_0
  6
CONTINUOUS
 62
    7
 10
359.24389407441447
 20
69.007491286402626
 11
356.24390892080373
 21
68.203645906599007
  0
LINE
  8
_0-0_0
  6
CONTINUOUS
 62
    7
 10
359.24389407441447
 20
69.007491286402626
 11
356.24390892080373
 21
69.007491286402626
  0
LINE
  8
_0-0_0
  6
CONTINUOUS
 62
    7
 10
242.34389440433412
 20
114.33749559185557
 11
242.34389440433412
 21
68.00749417320057
  0
LINE
  8
_0-0_0
  6
CONTINUOUS
 62
    7
 10
359.24389407441447
 20
114.33749559185557
 11
359.24389407441447
 21
68.00749417320057
  0
LINE
  8
_0-0_0
  6
CONTINUOUS
 62
    7
 10
242.34389440433412
 20
69.007491286402626
 11
359.24389407441447
 21
69.007491286402626
  0
LINE
  8
_0-0_0
  6
CONTINUOUS
 62
    7
 10
342.79389671377248
 20
77.429693319368255
 11
345.7939066113654
 21
76.625854125560153
  0
LINE
  8
_0-0_0
  6
CONTINUOUS
 62
    7
 10
345.7939066113654
 20
76.625854125560153
 11
342.79389671377248
 21
75.822008745756477
  0
LINE
  8
_0-0_0
  6
CONTINUOUS
 62
    7
 10
345.7939066113654
 20
76.625854125560153
 11
342.79389671377248
 21
76.625854125560153
  0
LINE
  8
_0-0_0
  6
CONTINUOUS
 62
    7
 10
258.79389176497602
 20
75.822008745756477
 11
255.79390661136532
 21
76.625854125560153
  0
LINE
  8
_0-0_0
  6
CONTINUOUS
 62
    7
 10
255.79390661136532
 20
76.625854125560153
 11
258.79389176497602
 21
77.429693319368255
  0
LINE
  8
_0-0_0
  6
CONTINUOUS
 62
    7
 10
255.79390661136532
 20
76.625854125560153
 11
258.79389176497602
 21
76.625854125560153
  0
LINE
  8
_0-0_0
  6
CONTINUOUS
 62
    7
 10
345.7939066113654
 20
122.01249740641427
 11
345.7939066113654
 21
75.625850826362466
  0
LINE
  8
_0-0_0
  6
CONTINUOUS
 62
    7
 10
255.79390661136532
 20
121.76249658161487
 11
255.79390661136532
 21
75.625850826362466
  0
LINE
  8
_0-0_0
  6
CONTINUOUS
 62
    7
 10
345.7939066113654
 20
76.625854125560153
 11
255.79390661136532
 21
76.625854125560153
  0
LINE
  8
_0-0_0
  6
CONTINUOUS
 62
    7
 10
247.64390694128514
 20
152.66364767166976
 11
244.64389704369222
 21
153.46749305147335
  0
LINE
  8
_0-0_0
  6
CONTINUOUS
 62
    7
 10
244.64389704369222
 20
153.46749305147335
 11
247.64390694128514
 21
154.27133843127694
  0
LINE
  8
_0-0_0
  6
CONTINUOUS
 62
    7
 10
244.64389704369222
 20
153.46749305147335
 11
247.64390694128514
 21
153.46749305147335
  0
LINE
  8
_0-0_0
  6
CONTINUOUS
 62
    7
 10
353.94390628144561
 20
154.27133843127694
 11
356.94391617903852
 21
153.46749305147335
  0
LINE
  8
_0-0_0
  6
CONTINUOUS
 62
    7
 10
356.94391617903852
 20
153.46749305147335
 11
353.94390628144561
 21
152.66364767166976
  0
LINE
  8
_0-0_0
  6
CONTINUOUS
 62
    7
 10
356.94391617903852
 20
153.46749305147335
 11
353.94390628144561
 21
153.46749305147335
  0
LINE
  8
_0-0_0
  6
CONTINUOUS
 62
    7
 10
244.64389704369222
 20
132.38748833362075
 11
244.64389704369222
 21
154.46749635067096
  0
LINE
  8
_0-0_0
  6
CONTINUOUS
 62
    7
 10
356.94391617903852
 20
132.38748833362075
 11
356.94391617903852
 21
154.46749635067096
  0
LINE
  8
_0-0_0
  6
CONTINUOUS
 62
    7
 10
244.64389704369222
 20
153.46749305147335
 11
356.94391617903852
 21
153.46749305147335
  0
LINE
  8
_0-0_0
  6
CONTINUOUS
 62
    7
 10
356.94391617903852
 20
161.88970127043456
 11
359.94390133264926
 21
161.08585589063085
  0
LINE
  8
_0-0_0
  6
CONTINUOUS
 62
    7
 10
359.94390133264926
 20
161.08585589063085
 11
356.94391617903852
 21
160.28201051082726
  0
LINE
  8
_0-0_0
  6
CONTINUOUS
 62
    7
 10
359.94390133264926
 20
161.08585589063085
 11
356.94391617903852
 21
161.08585589063085
  0
LINE
  8
_0-0_0
  6
CONTINUOUS
 62
    7
 10
244.64389704369222
 20
160.28201051082726
 11
241.64391189008163
 21
161.08585589063085
  0
LINE
  8
_0-0_0
  6
CONTINUOUS
 62
    7
 10
241.64391189008163
 20
161.08585589063085
 11
244.64389704369222
 21
161.88970127043456
  0
LINE
  8
_0-0_0
  6
CONTINUOUS
 62
    7
 10
241.64391189008163
 20
161.08585589063085
 11
244.64389704369222
 21
161.08585589063085
  0
LINE
  8
_0-0_0
  6
CONTINUOUS
 62
    7
 10
359.94390133264926
 20
132.08749229265797
 11
359.94390133264926
 21
162.08585918982857
  0
LINE
  8
_0-0_0
  6
CONTINUOUS
 62
    7
 10
241.64391189008163
 20
132.08749229265797
 11
241.64391189008163
 21
162.08585918982857
  0
LINE
  8
_0-0_0
  6
CONTINUOUS
 62
    7
 10
359.94390133264926
 20
161.08585589063085
 11
241.64391189008163
 21
161.08585589063085
  0
LINE
  8
_0-0_0
  6
CONTINUOUS
 62
    7
 10
167.69663224349162
 20
115.81248437458356
 11
169.34917147095152
 21
115.81248437458356
  0
LINE
  8
_0-0_0
  6
CENTER2
 62
    7
 10
44.1187730351011
 20
123.23748536434286
 11
171.74739534790461
 21
123.23748536434286
  0
LINE
  8
_0-0_0
  6
CENTER2
 62
    7
 10
109.92771052025472
 20
135.57288014633187
 11
109.92771052025472
 21
109.48661107696955
  0
LINE
  8
_0-0_0
  6
CONTINUOUS
 62
    7
 10
50.710563724105526
 20
117.38748833362075
 11
50.710563724105526
 21
115.13749328241715
  0
LINE
  8
_0-0_0
  6
CONTINUOUS
 62
    7
 10
50.993405999364199
 20
117.38748833362075
 11
50.710563724105526
 21
117.38748833362075
  0
LINE
  8
_0-0_0
  6
CONTINUOUS
 62
    7
 10
50.993405999364199
 20
115.30317898765367
 11
50.993405999364199
 21
117.38748833362075
  0
LINE
  8
_0-0_0
  6
CONTINUOUS
 62
    7
 10
50.827720294127715
 20
115.02033052639945
 11
53.077724624324617
 21
115.02033052639945
  0
LINE
  8
_0-0_0
  6
CONTINUOUS
 62
    7
 10
53.077724624324617
 20
115.30317898765367
 11
50.993405999364199
 21
115.30317898765367
  0
LINE
  8
_0-0_0
  6
CONTINUOUS
 62
    7
 10
53.077724624324617
 20
115.02033052639945
 11
53.077724624324617
 21
115.30317898765367
  0
LINE
  8
_0-0_0
  6
CONTINUOUS
 62
    7
 10
52.927720417847581
 20
117.38748833362075
 11
50.993405999364199
 21
117.38748833362075
  0
LINE
  8
_0-0_0
  6
CONTINUOUS
 62
    7
 10
52.927720417847581
 20
117.38748833362075
 11
52.927720417847581
 21
117.33748074546617
  0
LINE
  8
_0-0_0
  6
CONTINUOUS
 62
    7
 10
53.027723222165605
 20
117.23749031313935
 11
53.077724624324617
 21
117.23749031313935
  0
LINE
  8
_0-0_0
  6
CONTINUOUS
 62
    7
 10
53.077724624324617
 20
115.30317898765367
 11
53.077724624324617
 21
117.23749031313935
  0
LINE
  8
_0-0_0
  6
CONTINUOUS
 62
    7
 10
50.044876369270241
 20
115.13749328241715
 11
50.710563724105526
 21
115.13749328241715
  0
LINE
  8
_0-0_0
  6
CONTINUOUS
 62
    7
 10
50.827720294127715
 20
114.35464317156405
 11
50.827720294127715
 21
115.02033052639945
  0
LINE
  8
_0-0_0
  6
CONTINUOUS
 62
    7
 10
53.077724624324617
 20
114.35464317156405
 11
50.827720294127715
 21
114.35464317156405
  0
LINE
  8
_0-0_0
  6
CONTINUOUS
 62
    7
 10
53.077724624324617
 20
114.35464317156405
 11
53.077724624324617
 21
115.02033052639945
  0
LINE
  8
_0-0_0
  6
CONTINUOUS
 62
    7
 10
50.044876369270241
 20
115.13749328241715
 11
50.044876369270241
 21
117.38748833362075
  0
LINE
  8
_0-0_0
  6
CONTINUOUS
 62
    7
 10
50.710563724105526
 20
117.38748833362075
 11
50.044876369270241
 21
117.38748833362075
  0
LINE
  8
_0-0_0
  6
CONTINUOUS
 62
    7
 10
50.827720294127715
 20
114.23748041554637
 11
50.827720294127715
 21
114.35464317156405
  0
LINE
  8
_0-0_0
  6
CONTINUOUS
 62
    7
 10
49.927719799248081
 20
115.13749328241715
 11
50.044876369270241
 21
115.13749328241715
  0
LINE
  8
_0-0_0
  6
CONTINUOUS
 62
    7
 10
49.927719799248081
 20
117.38748833362075
 11
49.927719799248081
 21
115.13749328241715
  0
LINE
  8
_0-0_0
  6
CONTINUOUS
 62
    7
 10
50.044876369270241
 20
117.38748833362075
 11
49.927719799248081
 21
117.38748833362075
  0
LINE
  8
_0-0_0
  6
CONTINUOUS
 62
    7
 10
50.827720294127715
 20
114.23748041554637
 11
53.077724624324617
 21
114.23748041554637
  0
LINE
  8
_0-0_0
  6
CONTINUOUS
 62
    7
 10
53.077724624324617
 20
114.23748041554637
 11
53.077724624324617
 21
114.35464317156405
  0
LINE
  8
_0-0_0
  6
CONTINUOUS
 62
    7
 10
169.14487278139282
 20
129.08748239506505
 11
169.14487278139282
 21
131.33747744626857
  0
LINE
  8
_0-0_0
  6
CONTINUOUS
 62
    7
 10
168.86202432013852
 20
129.08748239506505
 11
169.14487278139282
 21
129.08748239506505
  0
LINE
  8
_0-0_0
  6
CONTINUOUS
 62
    7
 10
168.86202432013852
 20
131.17179174103205
 11
168.86202432013852
 21
129.08748239506505
  0
LINE
  8
_0-0_0
  6
CONTINUOUS
 62
    7
 10
169.02771002537503
 20
131.45464020228627
 11
166.77771497417152
 21
131.45464020228627
  0
LINE
  8
_0-0_0
  6
CONTINUOUS
 62
    7
 10
166.77771497417152
 20
131.17179174103205
 11
168.86202432013852
 21
131.17179174103205
  0
LINE
  8
_0-0_0
  6
CONTINUOUS
 62
    7
 10
166.77771497417152
 20
131.45464020228627
 11
166.77771497417152
 21
131.17179174103205
  0
LINE
  8
_0-0_0
  6
CONTINUOUS
 62
    7
 10
166.92771299465292
 20
129.08748239506505
 11
168.86202432013852
 21
129.08748239506505
  0
LINE
  8
_0-0_0
  6
CONTINUOUS
 62
    7
 10
166.92771299465292
 20
129.08748239506505
 11
166.92771299465292
 21
129.13748998321955
  0
LINE
  8
_0-0_0
  6
CONTINUOUS
 62
    7
 10
166.82771019033493
 20
129.23748041554637
 11
166.77771497417152
 21
129.23748041554637
  0
LINE
  8
_0-0_0
  6
CONTINUOUS
 62
    7
 10
166.77771497417152
 20
131.17179174103205
 11
166.77771497417152
 21
129.23748041554637
  0
LINE
  8
_0-0_0
  6
CONTINUOUS
 62
    7
 10
169.81056013622813
 20
131.33747744626857
 11
169.14487278139282
 21
131.33747744626857
  0
LINE
  8
_0-0_0
  6
CONTINUOUS
 62
    7
 10
169.02771002537503
 20
132.12032755712156
 11
169.02771002537503
 21
131.45464020228627
  0
LINE
  8
_0-0_0
  6
CONTINUOUS
 62
    7
 10
166.77771497417152
 20
132.12032755712156
 11
169.02771002537503
 21
132.12032755712156
  0
LINE
  8
_0-0_0
  6
CONTINUOUS
 62
    7
 10
166.77771497417152
 20
132.12032755712156
 11
166.77771497417152
 21
131.45464020228627
  0
LINE
  8
_0-0_0
  6
CONTINUOUS
 62
    7
 10
169.81056013622813
 20
131.33747744626857
 11
169.81056013622813
 21
129.08748239506505
  0
LINE
  8
_0-0_0
  6
CONTINUOUS
 62
    7
 10
169.14487278139282
 20
129.08748239506505
 11
169.81056013622813
 21
129.08748239506505
  0
LINE
  8
_0-0_0
  6
CONTINUOUS
 62
    7
 10
169.02771002537503
 20
132.23749031313935
 11
169.02771002537503
 21
132.12032755712156
  0
LINE
  8
_0-0_0
  6
CONTINUOUS
 62
    7
 10
169.92771052025472
 20
131.33747744626857
 11
169.81056013622813
 21
131.33747744626857
  0
LINE
  8
_0-0_0
  6
CONTINUOUS
 62
    7
 10
169.92771052025472
 20
129.08748239506505
 11
169.92771052025472
 21
131.33747744626857
  0
LINE
  8
_0-0_0
  6
CONTINUOUS
 62
    7
 10
169.81056013622813
 20
129.08748239506505
 11
169.92771052025472
 21
129.08748239506505
  0
LINE
  8
_0-0_0
  6
CONTINUOUS
 62
    7
 10
169.02771002537503
 20
132.23749031313935
 11
166.77771497417152
 21
132.23749031313935
  0
LINE
  8
_0-0_0
  6
CONTINUOUS
 62
    7
 10
166.77771497417152
 20
132.23749031313935
 11
166.77771497417152
 21
132.12032755712156
  0
LINE
  8
_0-0_0
  6
CONTINUOUS
 62
    7
 10
168.86202432013852
 20
115.30317898765367
 11
168.86202432013852
 21
117.38748833362075
  0
LINE
  8
_0-0_0
  6
CONTINUOUS
 62
    7
 10
168.86202432013852
 20
117.38748833362075
 11
169.14487278139282
 21
117.38748833362075
  0
LINE
  8
_0-0_0
  6
CONTINUOUS
 62
    7
 10
169.14487278139282
 20
117.38748833362075
 11
169.14487278139282
 21
115.13749328241715
  0
LINE
  8
_0-0_0
  6
CONTINUOUS
 62
    7
 10
166.77771497417152
 20
115.30317898765367
 11
168.86202432013852
 21
115.30317898765367
  0
LINE
  8
_0-0_0
  6
CONTINUOUS
 62
    7
 10
169.02771002537503
 20
115.02033052639945
 11
166.77771497417152
 21
115.02033052639945
  0
LINE
  8
_0-0_0
  6
CONTINUOUS
 62
    7
 10
166.77771497417152
 20
115.02033052639945
 11
166.77771497417152
 21
115.30317898765367
  0
LINE
  8
_0-0_0
  6
CONTINUOUS
 62
    7
 10
166.82771019033493
 20
117.23749031313935
 11
166.77771497417152
 21
117.23749031313935
  0
LINE
  8
_0-0_0
  6
CONTINUOUS
 62
    7
 10
166.92771299465292
 20
117.38748833362075
 11
166.92771299465292
 21
117.33748074546617
  0
LINE
  8
_0-0_0
  6
CONTINUOUS
 62
    7
 10
166.92771299465292
 20
117.38748833362075
 11
168.86202432013852
 21
117.38748833362075
  0
LINE
  8
_0-0_0
  6
CONTINUOUS
 62
    7
 10
166.77771497417152
 20
115.30317898765367
 11
166.77771497417152
 21
117.23749031313935
  0
LINE
  8
_0-0_0
  6
CONTINUOUS
 62
    7
 10
169.81056013622813
 20
115.13749328241715
 11
169.14487278139282
 21
115.13749328241715
  0
LINE
  8
_0-0_0
  6
CONTINUOUS
 62
    7
 10
169.02771002537503
 20
114.35464317156405
 11
169.02771002537503
 21
115.02033052639945
  0
LINE
  8
_0-0_0
  6
CONTINUOUS
 62
    7
 10
166.77771497417152
 20
114.35464317156405
 11
169.02771002537503
 21
114.35464317156405
  0
LINE
  8
_0-0_0
  6
CONTINUOUS
 62
    7
 10
166.77771497417152
 20
114.35464317156405
 11
166.77771497417152
 21
115.02033052639945
  0
LINE
  8
_0-0_0
  6
CONTINUOUS
 62
    7
 10
169.81056013622813
 20
115.13749328241715
 11
169.81056013622813
 21
117.38748833362075
  0
LINE
  8
_0-0_0
  6
CONTINUOUS
 62
    7
 10
169.14487278139282
 20
117.38748833362075
 11
169.81056013622813
 21
117.38748833362075
  0
LINE
  8
_0-0_0
  6
CONTINUOUS
 62
    7
 10
169.02771002537503
 20
114.23748041554637
 11
169.02771002537503
 21
114.35464317156405
  0
LINE
  8
_0-0_0
  6
CONTINUOUS
 62
    7
 10
169.92771052025472
 20
115.13749328241715
 11
169.81056013622813
 21
115.13749328241715
  0
LINE
  8
_0-0_0
  6
CONTINUOUS
 62
    7
 10
169.92771052025472
 20
117.38748833362075
 11
169.92771052025472
 21
115.13749328241715
  0
LINE
  8
_0-0_0
  6
CONTINUOUS
 62
    7
 10
169.81056013622813
 20
117.38748833362075
 11
169.92771052025472
 21
117.38748833362075
  0
LINE
  8
_0-0_0
  6
CONTINUOUS
 62
    7
 10
169.02771002537503
 20
114.23748041554637
 11
166.77771497417152
 21
114.23748041554637
  0
LINE
  8
_0-0_0
  6
CONTINUOUS
 62
    7
 10
166.77771497417152
 20
114.23748041554637
 11
166.77771497417152
 21
114.35464317156405
  0
LINE
  8
_0-0_0
  6
CONTINUOUS
 62
    7
 10
50.993405999364199
 20
131.17179174103205
 11
50.993405999364199
 21
129.08748239506505
  0
LINE
  8
_0-0_0
  6
CONTINUOUS
 62
    7
 10
50.993405999364199
 20
129.08748239506505
 11
50.710563724105526
 21
129.08748239506505
  0
LINE
  8
_0-0_0
  6
CONTINUOUS
 62
    7
 10
50.710563724105526
 20
129.08748239506505
 11
50.710563724105526
 21
131.33747744626857
  0
LINE
  8
_0-0_0
  6
CONTINUOUS
 62
    7
 10
53.077724624324617
 20
131.17179174103205
 11
50.993405999364199
 21
131.17179174103205
  0
LINE
  8
_0-0_0
  6
CONTINUOUS
 62
    7
 10
50.827720294127715
 20
131.45464020228627
 11
53.077724624324617
 21
131.45464020228627
  0
LINE
  8
_0-0_0
  6
CONTINUOUS
 62
    7
 10
53.077724624324617
 20
131.45464020228627
 11
53.077724624324617
 21
131.17179174103205
  0
LINE
  8
_0-0_0
  6
CONTINUOUS
 62
    7
 10
53.027723222165605
 20
129.23748041554637
 11
53.077724624324617
 21
129.23748041554637
  0
LINE
  8
_0-0_0
  6
CONTINUOUS
 62
    7
 10
52.927720417847581
 20
129.08748239506505
 11
52.927720417847581
 21
129.13748998321955
  0
LINE
  8
_0-0_0
  6
CONTINUOUS
 62
    7
 10
52.927720417847581
 20
129.08748239506505
 11
50.993405999364199
 21
129.08748239506505
  0
LINE
  8
_0-0_0
  6
CONTINUOUS
 62
    7
 10
53.077724624324617
 20
131.17179174103205
 11
53.077724624324617
 21
129.23748041554637
  0
LINE
  8
_0-0_0
  6
CONTINUOUS
 62
    7
 10
50.044876369270241
 20
131.33747744626857
 11
50.710563724105526
 21
131.33747744626857
  0
LINE
  8
_0-0_0
  6
CONTINUOUS
 62
    7
 10
50.827720294127715
 20
132.12032755712156
 11
50.827720294127715
 21
131.45464020228627
  0
LINE
  8
_0-0_0
  6
CONTINUOUS
 62
    7
 10
53.077724624324617
 20
132.12032755712156
 11
50.827720294127715
 21
132.12032755712156
  0
LINE
  8
_0-0_0
  6
CONTINUOUS
 62
    7
 10
53.077724624324617
 20
132.12032755712156
 11
53.077724624324617
 21
131.45464020228627
  0
LINE
  8
_0-0_0
  6
CONTINUOUS
 62
    7
 10
50.044876369270241
 20
131.33747744626857
 11
50.044876369270241
 21
129.08748239506505
  0
LINE
  8
_0-0_0
  6
CONTINUOUS
 62
    7
 10
50.710563724105526
 20
129.08748239506505
 11
50.044876369270241
 21
129.08748239506505
  0
LINE
  8
_0-0_0
  6
CONTINUOUS
 62
    7
 10
50.827720294127715
 20
132.23749031313935
 11
50.827720294127715
 21
132.12032755712156
  0
LINE
  8
_0-0_0
  6
CONTINUOUS
 62
    7
 10
49.927719799248081
 20
131.33747744626857
 11
50.044876369270241
 21
131.33747744626857
  0
LINE
  8
_0-0_0
  6
CONTINUOUS
 62
    7
 10
49.927719799248081
 20
129.08748239506505
 11
49.927719799248081
 21
131.33747744626857
  0
LINE
  8
_0-0_0
  6
CONTINUOUS
 62
    7
 10
50.044876369270241
 20
129.08748239506505
 11
49.927719799248081
 21
129.08748239506505
  0
LINE
  8
_0-0_0
  6
CONTINUOUS
 62
    7
 10
50.827720294127715
 20
132.23749031313935
 11
53.077724624324617
 21
132.23749031313935
  0
LINE
  8
_0-0_0
  6
CONTINUOUS
 62
    7
 10
53.077724624324617
 20
132.23749031313935
 11
53.077724624324617
 21
132.12032755712156
  0
LINE
  8
_0-0_0
  6
CONTINUOUS
 62
    7
 10
168.86202432013852
 20
117.38748833362075
 11
168.86202432013852
 21
129.08748239506505
  0
LINE
  8
_0-0_0
  6
CONTINUOUS
 62
    7
 10
169.14487278139282
 20
129.08748239506505
 11
169.14487278139282
 21
117.38748833362075
  0
LINE
  8
_0-0_0
  6
CONTINUOUS
 62
    7
 10
166.94771850431292
 20
129.08748239506505
 11
166.94771850431292
 21
117.38748833362075
  0
LINE
  8
_0-0_0
  6
CONTINUOUS
 62
    7
 10
166.92771299465292
 20
117.38748833362075
 11
166.92771299465292
 21
129.08748239506505
  0
LINE
  8
_0-0_0
  6
CONTINUOUS
 62
    7
 10
169.81056013622813
 20
117.38748833362075
 11
169.81056013622813
 21
129.08748239506505
  0
LINE
  8
_0-0_0
  6
CONTINUOUS
 62
    7
 10
169.92771052025472
 20
129.08748239506505
 11
169.92771052025472
 21
117.38748833362075
  0
LINE
  8
_0-0_0
  6
CONTINUOUS
 62
    7
 10
50.993405999364199
 20
129.08748239506505
 11
50.993405999364199
 21
117.38748833362075
  0
LINE
  8
_0-0_0
  6
CONTINUOUS
 62
    7
 10
50.710563724105526
 20
117.38748833362075
 11
50.710563724105526
 21
129.08748239506505
  0
LINE
  8
_0-0_0
  6
CONTINUOUS
 62
    7
 10
52.907721094183131
 20
117.38748833362075
 11
52.907721094183131
 21
129.08748239506505
  0
LINE
  8
_0-0_0
  6
CONTINUOUS
 62
    7
 10
52.927720417847581
 20
129.08748239506505
 11
52.927720417847581
 21
117.38748833362075
  0
LINE
  8
_0-0_0
  6
CONTINUOUS
 62
    7
 10
50.044876369270241
 20
129.08748239506505
 11
50.044876369270241
 21
117.38748833362075
  0
LINE
  8
_0-0_0
  6
CONTINUOUS
 62
    7
 10
49.927719799248081
 20
117.38748833362075
 11
49.927719799248081
 21
129.08748239506505
  0
LINE
  8
_0-0_0
  6
CONTINUOUS
 62
    7
 10
53.077724624324617
 20
115.30317898765367
 11
166.77771497417152
 21
115.30317898765367
  0
LINE
  8
_0-0_0
  6
CONTINUOUS
 62
    7
 10
166.77771497417152
 20
115.02033052639945
 11
53.077724624324617
 21
115.02033052639945
  0
LINE
  8
_0-0_0
  6
CONTINUOUS
 62
    7
 10
166.77771497417152
 20
117.21749717547036
 11
53.077724624324617
 21
117.21749717547036
  0
LINE
  8
_0-0_0
  6
CONTINUOUS
 62
    7
 10
53.077724624324617
 20
117.23749031313935
 11
166.77771497417152
 21
117.23749031313935
  0
LINE
  8
_0-0_0
  6
CONTINUOUS
 62
    7
 10
53.077724624324617
 20
114.35464317156405
 11
166.77771497417152
 21
114.35464317156405
  0
LINE
  8
_0-0_0
  6
CONTINUOUS
 62
    7
 10
166.77771497417152
 20
114.23748041554637
 11
53.077724624324617
 21
114.23748041554637
  0
LINE
  8
_0-0_0
  6
CONTINUOUS
 62
    7
 10
166.77771497417152
 20
131.17179174103205
 11
53.077724624324617
 21
131.17179174103205
  0
LINE
  8
_0-0_0
  6
CONTINUOUS
 62
    7
 10
53.077724624324617
 20
131.45464020228627
 11
166.77771497417152
 21
131.45464020228627
  0
LINE
  8
_0-0_0
  6
CONTINUOUS
 62
    7
 10
53.077724624324617
 20
129.25749829719766
 11
166.77771497417152
 21
129.25749829719766
  0
LINE
  8
_0-0_0
  6
CONTINUOUS
 62
    7
 10
166.77771497417152
 20
129.23748041554637
 11
53.077724624324617
 21
129.23748041554637
  0
LINE
  8
_0-0_0
  6
CONTINUOUS
 62
    7
 10
166.77771497417152
 20
132.12032755712156
 11
53.077724624324617
 21
132.12032755712156
  0
LINE
  8
_0-0_0
  6
CONTINUOUS
 62
    7
 10
53.077724624324617
 20
132.23749031313935
 11
166.77771497417152
 21
132.23749031313935
  0
LINE
  8
_0-0_0
  6
CENTER2
 62
    7
 10
26.970998467625918
 20
123.23748536434286
 11
33.078475191786595
 21
123.23748536434286
  0
LINE
  8
_0-0_0
  6
CONTINUOUS
 62
    7
 10
29.757102824546308
 20
129.08748239506505
 11
29.757102824546308
 21
131.33747744626857
  0
LINE
  8
_0-0_0
  6
CONTINUOUS
 62
    7
 10
29.757102824546308
 20
131.33747744626857
 11
30.741415345991101
 21
131.33747744626857
  0
LINE
  8
_0-0_0
  6
CONTINUOUS
 62
    7
 10
30.741415345991101
 20
129.08748239506505
 11
30.741415345991101
 21
131.33747744626857
  0
LINE
  8
_0-0_0
  6
CONTINUOUS
 62
    7
 10
29.757102824546308
 20
129.08748239506505
 11
30.741415345991101
 21
129.08748239506505
  0
LINE
  8
_0-0_0
  6
CONTINUOUS
 62
    7
 10
29.474260549287663
 20
131.33747744626857
 11
29.474260549287663
 21
129.08748239506505
  0
LINE
  8
_0-0_0
  6
CONTINUOUS
 62
    7
 10
29.757102824546308
 20
131.33747744626857
 11
29.474260549287663
 21
131.33747744626857
  0
LINE
  8
_0-0_0
  6
CONTINUOUS
 62
    7
 10
29.474260549287663
 20
129.08748239506505
 11
29.757102824546308
 21
129.08748239506505
  0
LINE
  8
_0-0_0
  6
CONTINUOUS
 62
    7
 10
29.757102824546308
 20
131.33747744626857
 11
29.757102824546308
 21
132.23749031313935
  0
LINE
  8
_0-0_0
  6
CONTINUOUS
 62
    7
 10
29.757102824546308
 20
132.23749031313935
 11
30.741415345991101
 21
132.23749031313935
  0
LINE
  8
_0-0_0
  6
CONTINUOUS
 62
    7
 10
30.741415345991101
 20
131.33747744626857
 11
30.741415345991101
 21
132.23749031313935
  0
LINE
  8
_0-0_0
  6
CONTINUOUS
 62
    7
 10
29.474260549287663
 20
132.12032755712156
 11
29.474260549287663
 21
131.33747744626857
  0
LINE
  8
_0-0_0
  6
CONTINUOUS
 62
    7
 10
29.474260549287663
 20
131.33747744626857
 11
28.80857319445235
 21
131.33747744626857
  0
LINE
  8
_0-0_0
  6
CONTINUOUS
 62
    7
 10
29.474260549287663
 20
132.12032755712156
 11
28.80857319445235
 21
131.45464020228627
  0
LINE
  8
_0-0_0
  6
CONTINUOUS
 62
    7
 10
28.80857319445235
 20
129.08748239506505
 11
28.80857319445235
 21
131.33747744626857
  0
LINE
  8
_0-0_0
  6
CONTINUOUS
 62
    7
 10
28.80857319445235
 20
129.08748239506505
 11
29.474260549287663
 21
129.08748239506505
  0
LINE
  8
_0-0_0
  6
CONTINUOUS
 62
    7
 10
28.69141662443019
 20
131.17179174103205
 11
28.69141662443019
 21
129.08748239506505
  0
LINE
  8
_0-0_0
  6
CONTINUOUS
 62
    7
 10
28.69141662443019
 20
129.08748239506505
 11
28.80857319445235
 21
129.08748239506505
  0
LINE
  8
_0-0_0
  6
CONTINUOUS
 62
    7
 10
29.757102824546308
 20
117.38748833362075
 11
29.757102824546308
 21
115.13749328241715
  0
LINE
  8
_0-0_0
  6
CONTINUOUS
 62
    7
 10
29.757102824546308
 20
115.13749328241715
 11
29.474260549287663
 21
115.13749328241715
  0
LINE
  8
_0-0_0
  6
CONTINUOUS
 62
    7
 10
29.474260549287663
 20
115.13749328241715
 11
29.474260549287663
 21
117.38748833362075
  0
LINE
  8
_0-0_0
  6
CONTINUOUS
 62
    7
 10
29.474260549287663
 20
117.38748833362075
 11
29.757102824546308
 21
117.38748833362075
  0
LINE
  8
_0-0_0
  6
CONTINUOUS
 62
    7
 10
30.741415345991101
 20
117.38748833362075
 11
30.741415345991101
 21
115.13749328241715
  0
LINE
  8
_0-0_0
  6
CONTINUOUS
 62
    7
 10
29.757102824546308
 20
115.13749328241715
 11
30.741415345991101
 21
115.13749328241715
  0
LINE
  8
_0-0_0
  6
CONTINUOUS
 62
    7
 10
29.757102824546308
 20
117.38748833362075
 11
30.741415345991101
 21
117.38748833362075
  0
LINE
  8
_0-0_0
  6
CONTINUOUS
 62
    7
 10
29.757102824546308
 20
114.23748041554637
 11
30.741415345991101
 21
114.23748041554637
  0
LINE
  8
_0-0_0
  6
CONTINUOUS
 62
    7
 10
29.757102824546308
 20
115.13749328241715
 11
29.757102824546308
 21
114.23748041554637
  0
LINE
  8
_0-0_0
  6
CONTINUOUS
 62
    7
 10
30.741415345991101
 20
115.13749328241715
 11
30.741415345991101
 21
114.23748041554637
  0
LINE
  8
_0-0_0
  6
CONTINUOUS
 62
    7
 10
29.474260549287663
 20
114.35464317156405
 11
29.474260549287663
 21
115.13749328241715
  0
LINE
  8
_0-0_0
  6
CONTINUOUS
 62
    7
 10
29.474260549287663
 20
115.13749328241715
 11
28.80857319445235
 21
115.13749328241715
  0
LINE
  8
_0-0_0
  6
CONTINUOUS
 62
    7
 10
28.80857319445235
 20
117.38748833362075
 11
28.80857319445235
 21
115.13749328241715
  0
LINE
  8
_0-0_0
  6
CONTINUOUS
 62
    7
 10
28.80857319445235
 20
117.38748833362075
 11
29.474260549287663
 21
117.38748833362075
  0
LINE
  8
_0-0_0
  6
CONTINUOUS
 62
    7
 10
29.474260549287663
 20
114.35464317156405
 11
28.80857319445235
 21
115.02033052639945
  0
LINE
  8
_0-0_0
  6
CONTINUOUS
 62
    7
 10
28.69141662443019
 20
115.30317898765367
 11
28.69141662443019
 21
117.38748833362075
  0
LINE
  8
_0-0_0
  6
CONTINUOUS
 62
    7
 10
28.69141662443019
 20
117.38748833362075
 11
28.80857319445235
 21
117.38748833362075
  0
LINE
  8
_0-0_0
  6
CONTINUOUS
 62
    7
 10
30.75141500782334
 20
129.08748239506505
 11
30.75141500782334
 21
117.38748833362075
  0
LINE
  8
_0-0_0
  6
CONTINUOUS
 62
    7
 10
30.75141500782334
 20
117.38748833362075
 11
30.741415345991101
 21
117.38748833362075
  0
LINE
  8
_0-0_0
  6
CONTINUOUS
 62
    7
 10
30.731415684158861
 20
117.38748833362075
 11
30.731415684158861
 21
129.08748239506505
  0
LINE
  8
_0-0_0
  6
CONTINUOUS
 62
    7
 10
30.741415345991101
 20
129.08748239506505
 11
30.75141500782334
 21
129.08748239506505
  0
LINE
  8
_0-0_0
  6
CONTINUOUS
 62
    7
 10
29.767102486378548
 20
129.08748239506505
 11
29.767102486378548
 21
117.38748833362075
  0
LINE
  8
_0-0_0
  6
CONTINUOUS
 62
    7
 10
30.731415684158861
 20
129.08748239506505
 11
29.767102486378548
 21
129.08748239506505
  0
LINE
  8
_0-0_0
  6
CONTINUOUS
 62
    7
 10
30.731415684158861
 20
117.38748833362075
 11
29.767102486378548
 21
117.38748833362075
  0
LINE
  8
_0-0_0
  6
CONTINUOUS
 62
    7
 10
29.484260211119903
 20
117.38748833362075
 11
29.484260211119903
 21
129.08748239506505
  0
LINE
  8
_0-0_0
  6
CONTINUOUS
 62
    7
 10
28.81857285628459
 20
129.08748239506505
 11
28.81857285628459
 21
117.38748833362075
  0
LINE
  8
_0-0_0
  6
CONTINUOUS
 62
    7
 10
28.701416286262429
 20
117.38748833362075
 11
28.701416286262429
 21
129.08748239506505
  0
LINE
  8
_0-0_0
  6
CONTINUOUS
 62
    7
 10
30.75141500782334
 20
114.51748331884036
 11
30.75141500782334
 21
114.25749829719757
  0
LINE
  8
_0-0_0
  6
CONTINUOUS
 62
    7
 10
30.75141500782334
 20
131.95748740984536
 11
30.75141500782334
 21
132.21749717547036
  0
LINE
  8
_0-0_0
  6
CONTINUOUS
 62
    7
 10
166.92771299465292
 20
140.46001459523387
 11
169.92771052025472
 21
139.65615684343916
  0
LINE
  8
_0-0_0
  6
CONTINUOUS
 62
    7
 10
169.92771052025472
 20
139.65615684343916
 11
166.92771299465292
 21
138.85232383562666
  0
LINE
  8
_0-0_0
  6
CONTINUOUS
 62
    7
 10
169.92771052025472
 20
139.65615684343916
 11
166.92771299465292
 21
139.65615684343916
  0
LINE
  8
_0-0_0
  6
CONTINUOUS
 62
    7
 10
52.927720417847581
 20
138.85232383562666
 11
49.927719799248081
 21
139.65615684343916
  0
LINE
  8
_0-0_0
  6
CONTINUOUS
 62
    7
 10
49.927719799248081
 20
139.65615684343916
 11
52.927720417847581
 21
140.46001459523387
  0
LINE
  8
_0-0_0
  6
CONTINUOUS
 62
    7
 10
49.927719799248081
 20
139.65615684343916
 11
52.927720417847581
 21
139.65615684343916
  0
LINE
  8
_0-0_0
  6
CONTINUOUS
 62
    7
 10
169.92771052025472
 20
130.08748569426265
 11
169.92771052025472
 21
140.65616014263676
  0
LINE
  8
_0-0_0
  6
CONTINUOUS
 62
    7
 10
49.927719799248081
 20
130.08748569426265
 11
49.927719799248081
 21
140.65616014263676
  0
LINE
  8
_0-0_0
  6
CONTINUOUS
 62
    7
 10
169.92771052025472
 20
139.65615684343916
 11
49.927719799248081
 21
139.65615684343916
  0
LINE
  8
_0-0_0
  6
CONTINUOUS
 62
    7
 10
25.691417552329511
 20
140.39459150612916
 11
28.69141662443019
 21
139.59073375433437
  0
LINE
  8
_0-0_0
  6
CONTINUOUS
 62
    7
 10
28.69141662443019
 20
139.59073375433437
 11
25.691417552329511
 21
138.78690074652195
  0
LINE
  8
_0-0_0
  6
CONTINUOUS
 62
    7
 10
28.69141662443019
 20
139.59073375433437
 11
25.691417552329511
 21
139.59073375433437
  0
LINE
  8
_0-0_0
  6
CONTINUOUS
 62
    7
 10
33.741415964590658
 20
138.78690074652195
 11
30.741415345991101
 21
139.59073375433437
  0
LINE
  8
_0-0_0
  6
CONTINUOUS
 62
    7
 10
30.741415345991101
 20
139.59073375433437
 11
33.741415964590658
 21
140.39459150612916
  0
LINE
  8
_0-0_0
  6
CONTINUOUS
 62
    7
 10
30.741415345991101
 20
139.59073375433437
 11
33.741415964590658
 21
139.59073375433437
  0
LINE
  8
_0-0_0
  6
CONTINUOUS
 62
    7
 10
28.69141662443019
 20
132.17179504022965
 11
28.69141662443019
 21
140.59073705353205
  0
LINE
  8
_0-0_0
  6
CONTINUOUS
 62
    7
 10
30.741415345991101
 20
132.33748074546617
 11
30.741415345991101
 21
140.59073705353205
  0
LINE
  8
_0-0_0
  6
CONTINUOUS
 62
    7
 10
28.69141662443019
 20
139.59073375433437
 11
22.691418480228862
 21
139.59073375433437
  0
LINE
  8
_0-0_0
  6
CONTINUOUS
 62
    7
 10
28.69141662443019
 20
139.59073375433437
 11
30.741415345991101
 21
139.59073375433437
  0
LINE
  8
_0-0_0
  6
CONTINUOUS
 62
    7
 10
30.741415345991101
 20
139.59073375433437
 11
42.570702900757766
 21
139.59073375433437
  0
LINE
  8
_0-0_0
  6
CONTINUOUS
 62
    7
 10
19.316091859662976
 20
135.23750021073215
 11
20.119937239466594
 21
132.23749031313935
  0
LINE
  8
_0-0_0
  6
CONTINUOUS
 62
    7
 10
20.119937239466594
 20
132.23749031313935
 11
20.923782619270241
 21
135.23750021073215
  0
LINE
  8
_0-0_0
  6
CONTINUOUS
 62
    7
 10
20.119937239466594
 20
132.23749031313935
 11
20.119937239466594
 21
135.23750021073215
  0
LINE
  8
_0-0_0
  6
CONTINUOUS
 62
    7
 10
20.923782619270241
 20
111.23749526193575
 11
20.119937239466594
 21
114.23748041554637
  0
LINE
  8
_0-0_0
  6
CONTINUOUS
 62
    7
 10
20.119937239466594
 20
114.23748041554637
 11
19.316091859662976
 21
111.23749526193575
  0
LINE
  8
_0-0_0
  6
CONTINUOUS
 62
    7
 10
20.119937239466594
 20
114.23748041554637
 11
20.119937239466594
 21
111.23749526193575
  0
LINE
  8
_0-0_0
  6
CONTINUOUS
 62
    7
 10
20.119937239466594
 20
132.23749031313935
 11
20.119937239466594
 21
138.23748536434286
  0
LINE
  8
_0-0_0
  6
CONTINUOUS
 62
    7
 10
20.119937239466594
 20
132.23749031313935
 11
20.119937239466594
 21
114.23748041554637
  0
LINE
  8
_0-0_0
  6
CONTINUOUS
 62
    7
 10
20.119937239466594
 20
114.23748041554637
 11
20.119937239466594
 21
108.23748536434286
  0
LINE
  8
_0-0_0
  6
CONTINUOUS
 62
    7
 10
29.171384927388914
 20
132.23749031313935
 11
19.119946312260112
 21
132.23749031313935
  0
LINE
  8
_0-0_0
  6
CONTINUOUS
 62
    7
 10
29.171384927388914
 20
114.23748041554637
 11
19.119946312260112
 21
114.23748041554637
  0
LINE
  8
_0-0_0
  6
CONTINUOUS
 62
    7
 10
183.76424847422433
 20
129.23748041554637
 11
183.76424847422433
 21
117.23749031313935
  0
LINE
  8
_0-0_0
  6
CONTINUOUS
 62
    7
 10
183.76424847422433
 20
129.23748041554637
 11
182.98779468278633
 21
132.13527292240875
  0
LINE
  8
_0-0_0
  6
CONTINUOUS
 62
    7
 10
183.76424847422433
 20
129.23748041554637
 11
184.54070226566213
 21
132.13527292240875
  0
LINE
  8
_0-0_0
  6
CONTINUOUS
 62
    7
 10
183.76424847422433
 20
117.23749031313935
 11
182.98779468278633
 21
114.33972255025927
  0
LINE
  8
_0-0_0
  6
CONTINUOUS
 62
    7
 10
183.76424847422433
 20
117.23749031313935
 11
184.54070226566213
 21
114.33972255025927
  0
LINE
  8
_0-0_0
  6
CONTINUOUS
 62
    7
 10
185.76424270062842
 20
129.23748041554637
 11
165.05129021567262
 21
129.23748041554637
  0
LINE
  8
_0-0_0
  6
CONTINUOUS
 62
    7
 10
185.76424270062842
 20
117.23749031313935
 11
165.05129021567262
 21
117.23749031313935
  0
LINE
  8
_0-0_0
  6
CONTINUOUS
 62
    7
 10
52.907721094183131
 20
101.70019948226937
 11
166.92771299465292
 21
101.70019948226937
  0
LINE
  8
_0-0_0
  6
CONTINUOUS
 62
    7
 10
52.907721094183131
 20
101.70019948226937
 11
55.805495043058784
 21
102.47666564569846
  0
LINE
  8
_0-0_0
  6
CONTINUOUS
 62
    7
 10
52.907721094183131
 20
101.70019948226937
 11
55.805495043058784
 21
100.92375806282257
  0
LINE
  8
_0-0_0
  6
CONTINUOUS
 62
    7
 10
166.92771299465292
 20
101.70019948226937
 11
164.02994523177281
 21
102.47666564569846
  0
LINE
  8
_0-0_0
  6
CONTINUOUS
 62
    7
 10
166.92771299465292
 20
101.70019948226937
 11
164.02994523177281
 21
100.92375806282257
  0
LINE
  8
_0-0_0
  6
CONTINUOUS
 62
    7
 10
52.907721094183131
 20
99.700217627856375
 11
52.907721094183131
 21
118.88269294985807
  0
LINE
  8
_0-0_0
  6
CONTINUOUS
 62
    7
 10
166.92771299465292
 20
99.700217627856375
 11
166.92771299465292
 21
118.88269294985807
  0
LINE
  8
_0-0_0
  6
CONTINUOUS
 62
    7
 10
168.35271893320873
 20
115.13271769384036
 11
168.35271893320873
 21
116.57024408742137
  0
LINE
  8
_0-0_0
  6
CONTINUOUS
 62
    7
 10
67.267371577185656
 20
205.58563154519175
 11
63.599348390424694
 21
198.24958517166976
  0
LINE
  8
_0-0_0
  6
CONTINUOUS
 62
    7
 10
63.599348390424694
 20
198.24958517166976
 11
67.267371577185656
 21
198.24958517166976
  0
LINE
  8
_0-0_0
  6
CONTINUOUS
 62
    7
 10
67.267371577185656
 20
198.24958517166976
 11
62.529765013102065
 21
191.93610860916976
  0
LINE
  8
_0-0_0
  6
CONTINUOUS
 62
    7
 10
150.91812140232824
 20
247.41100336476518
 11
147.96383838395823
 21
237.4947287527508
  0
LINE
  8
_0-0_0
  6
CONTINUOUS
 62
    7
 10
147.96383838395823
 20
237.4947287527508
 11
150.91812140232824
 21
239.09276935927539
  0
LINE
  8
_0-0_0
  6
CONTINUOUS
 62
    7
 10
150.91812140232824
 20
239.09276935927539
 11
148.65565538406383
 21
231.49861850676268
  0
LINE
  8
_0-0_0
  6
CONTINUOUS
 62
    7
 10
155.99573502669472
 20
209.07017810346875
 11
155.99573502669472
 21
209.12642117515375
  0
LINE
  8
_0-0_0
  6
CONTINUOUS
 62
    7
 10
155.31574565011113
 20
209.12642117515375
 11
155.31574565011113
 21
209.06998015161065
  0
LINE
  8
_0-0_0
  6
CONTINUOUS
 62
    7
 10
155.46124026582063
 20
210.32586097139526
 11
155.46124026582063
 21
209.26585351520856
  0
LINE
  8
_0-0_0
  6
CONTINUOUS
 62
    7
 10
155.85024041098512
 20
209.26585351520856
 11
155.85024041098512
 21
210.32586097139526
  0
LINE
  8
_0-0_0
  6
CONTINUOUS
 62
    7
 10
73.370301594605422
 20
167.75741499245737
 11
73.370301594605422
 21
167.81369518011576
  0
LINE
  8
_0-0_0
  6
CONTINUOUS
 62
    7
 10
72.69031221802183
 20
167.81369518011576
 11
72.69031221802183
 21
167.75703146073226
  0
LINE
  8
_0-0_0
  6
CONTINUOUS
 62
    7
 10
72.835806833731283
 20
169.01314734834835
 11
72.835806833731283
 21
167.95313989216177
  0
LINE
  8
_0-0_0
  6
CONTINUOUS
 62
    7
 10
73.224806978895998
 20
167.95313989216177
 11
73.224806978895998
 21
169.01314734834835
  0
LINE
  8
_0-0_0
  6
CONTINUOUS
 62
    7
 10
145.49520550547433
 20
214.32077690783944
 11
145.49520550547433
 21
214.37669830775505
  0
LINE
  8
_0-0_0
  6
CONTINUOUS
 62
    7
 10
144.81519138490842
 20
214.37669830775505
 11
144.81519138490842
 21
214.32040574810557
  0
LINE
  8
_0-0_0
  6
CONTINUOUS
 62
    7
 10
144.96071074460014
 20
215.57613810399667
 11
144.96071074460014
 21
214.51613064780994
  0
LINE
  8
_0-0_0
  6
CONTINUOUS
 62
    7
 10
145.34971088976482
 20
214.51613064780994
 11
145.34971088976482
 21
215.57613810399667
  0
LINE
  8
_0-0_0
  6
CONTINUOUS
 62
    7
 10
62.869772073385008
 20
173.00781584496997
 11
62.869772073385008
 21
173.06397231271706
  0
LINE
  8
_0-0_0
  6
CONTINUOUS
 62
    7
 10
62.189757952819122
 20
173.06397231271706
 11
62.189757952819122
 21
173.00761789311187
  0
LINE
  8
_0-0_0
  6
CONTINUOUS
 62
    7
 10
62.33527731251084
 20
174.26341210895856
 11
62.33527731251084
 21
173.20340465277187
  0
LINE
  8
_0-0_0
  6
CONTINUOUS
 62
    7
 10
62.724277457675527
 20
173.20340465277187
 11
62.724277457675527
 21
174.26341210895856
  0
LINE
  8
_0-0_0
  6
CONTINUOUS
 62
    7
 10
71.377594470977954
 20
185.00598726468067
 11
72.964228101678884
 21
184.21267044933026
  0
LINE
  8
_0-0_0
  6
CONTINUOUS
 62
    7
 10
73.096410454930606
 20
184.21267044933026
 11
74.683019341649356
 21
185.00598726468067
  0
LINE
  8
_0-0_0
  6
CONTINUOUS
 62
    7
 10
156.69915695448182
 20
226.01611910061825
 11
157.24951260798693
 21
226.40526770967656
  0
LINE
  8
_0-0_0
  6
CONTINUOUS
 62
    7
 10
155.08107372232394
 20
225.20501136202026
 11
156.66768260904263
 21
225.99832817737067
  0
LINE
  8
_0-0_0
  6
CONTINUOUS
 62
    7
 10
157.51033892502662
 20
226.87711070745945
 11
157.51033892502662
 21
227.72865011307596
  0
LINE
  8
_0-0_0
  6
CONTINUOUS
 62
    7
 10
60.935980371526881
 20
190.34281884723987
 11
61.48633602503196
 21
189.95367023818156
  0
LINE
  8
_0-0_0
  6
CONTINUOUS
 62
    7
 10
61.517810370471153
 20
189.93587931493406
 11
63.104444001172169
 21
189.14256249958356
  0
LINE
  8
_0-0_0
  6
CONTINUOUS
 62
    7
 10
60.67517879846946
 20
191.66620125063935
 11
60.67517879846946
 21
190.81288027829987
  0
LINE
  8
_0-0_0
  6
CONTINUOUS
 62
    7
 10
155.65053173013644
 20
228.84450473723146
 11
147.38257749660602
 21
232.97848185399653
  0
LINE
  8
_0-0_0
  6
CONTINUOUS
 62
    7
 10
145.27901733243803
 20
230.15177880817737
 11
153.53962260323613
 21
226.02148854476937
  0
LINE
  8
_0-0_0
  6
CONTINUOUS
 62
    7
 10
72.919045590065764
 20
185.83330231166136
 11
64.656708240509175
 21
189.96445861444846
  0
LINE
  8
_0-0_0
  6
CONTINUOUS
 62
    7
 10
63.150814223933992
 20
189.12803778199495
 11
71.377594470977954
 21
185.01464765847297
  0
LINE
  8
_0-0_0
  6
CONTINUOUS
 62
    7
 10
153.52878473900472
 20
226.02690747688516
 11
73.141568222561489
 21
185.83330231166136
  0
LINE
  8
_0-0_0
  6
CONTINUOUS
 62
    7
 10
74.683019341649356
 20
185.01464765847297
 11
155.03470349956214
 21
225.19048664443156
  0
LINE
  8
_0-0_0
  6
CONTINUOUS
 62
    7
 10
142.92781939377662
 20
232.97848185399653
 11
62.534961249377403
 21
192.78205587479465
  0
LINE
  8
_0-0_0
  6
CONTINUOUS
 62
    7
 10
64.645895120260008
 20
189.95903968233276
 11
145.03137955794472
 21
230.15177880817737
  0
LINE
  8
_0-0_0
  6
CONTINUOUS
 62
    7
 10
143.05987802711704
 20
249.26432763630237
 11
154.58569919740842
 21
243.50140467916549
  0
LINE
  8
_0-0_0
  6
CONTINUOUS
 62
    7
 10
142.29620450251824
 20
249.39363968761143
 11
64.30230018254889
 21
210.39670299261576
  0
LINE
  8
_0-0_0
  6
CONTINUOUS
 62
    7
 10
143.49208116531383
 20
249.54752251330831
 11
143.07860922169053
 21
249.75425848511986
  0
LINE
  8
_0-0_0
  6
CONTINUOUS
 62
    7
 10
64.328306107907821
 20
209.80141226732005
 11
64.384870851362194
 21
209.77312989559294
  0
LINE
  8
_0-0_0
  6
CONTINUOUS
 62
    7
 10
73.110366060927248
 20
208.68904654466385
 11
72.473975581091906
 21
209.00722941259036
  0
LINE
  8
_0-0_0
  6
CONTINUOUS
 62
    7
 10
75.91071676563584
 20
204.01020693845615
 11
75.967281509090242
 21
203.98192456672885
  0
LINE
  8
_0-0_0
  6
CONTINUOUS
 62
    7
 10
144.82355485091344
 20
214.41416069690194
 11
144.81519138490842
 21
214.37669830775505
  0
LINE
  8
_0-0_0
  6
CONTINUOUS
 62
    7
 10
144.96548633317704
 20
215.59756639263685
 11
144.96071074460014
 21
215.57613810399667
  0
LINE
  8
_0-0_0
  6
CONTINUOUS
 62
    7
 10
74.504145093866441
 20
185.01734475253966
 11
73.030294534322536
 21
184.28041947276776
  0
LINE
  8
_0-0_0
  6
CONTINUOUS
 62
    7
 10
73.030294534322536
 20
184.28041947276776
 11
71.55646871876084
 21
185.01734475253966
  0
LINE
  8
_0-0_0
  6
CONTINUOUS
 62
    7
 10
72.924241826341074
 20
185.70124367832096
 11
71.55646871876084
 21
185.01734475253966
  0
LINE
  8
_0-0_0
  6
CONTINUOUS
 62
    7
 10
72.924241826341074
 20
185.70124367832096
 11
72.959600976995603
 21
185.68355173100255
  0
LINE
  8
_0-0_0
  6
CONTINUOUS
 62
    7
 10
73.101012835631622
 20
185.68355173100255
 11
73.136371986286179
 21
185.70124367832096
  0
LINE
  8
_0-0_0
  6
CONTINUOUS
 62
    7
 10
74.504145093866441
 20
185.01734475253966
 11
73.136371986286179
 21
185.70124367832096
  0
LINE
  8
_0-0_0
  6
CONTINUOUS
 62
    7
 10
72.959600976995603
 20
185.81345763788596
 11
72.959600976995603
 21
185.68355173100255
  0
LINE
  8
_0-0_0
  6
CONTINUOUS
 62
    7
 10
73.101012835631622
 20
185.68355173100255
 11
73.101012835631622
 21
185.81345763788596
  0
LINE
  8
_0-0_0
  6
CONTINUOUS
 62
    7
 10
72.924241826341074
 20
185.70124367832096
 11
72.924241826341074
 21
185.83114958520437
  0
LINE
  8
_0-0_0
  6
CONTINUOUS
 62
    7
 10
71.356463110124821
 20
185.01882939147546
 11
71.32800753052183
 21
185.03944112870107
  0
LINE
  8
_0-0_0
  6
CONTINUOUS
 62
    7
 10
72.924241826341074
 20
185.83114958520437
 11
72.922336539706805
 21
185.83018456989615
  0
LINE
  8
_0-0_0
  6
CONTINUOUS
 62
    7
 10
74.732581538123156
 20
185.03944112870107
 11
74.704125958520137
 21
185.01882939147546
  0
LINE
  8
_0-0_0
  6
CONTINUOUS
 62
    7
 10
73.136371986286179
 20
185.70124367832096
 11
73.136371986286179
 21
185.83114958520437
  0
LINE
  8
_0-0_0
  6
CONTINUOUS
 62
    7
 10
73.13825252893821
 20
185.83018456989615
 11
73.136371986286179
 21
185.83114958520437
  0
LINE
  8
_0-0_0
  6
CONTINUOUS
 62
    7
 10
73.101012835631622
 20
185.81345763788596
 11
73.136371986286179
 21
185.83114958520437
  0
LINE
  8
_0-0_0
  6
CONTINUOUS
 62
    7
 10
72.924241826341074
 20
185.83114958520437
 11
72.959600976995603
 21
185.81345763788596
  0
LINE
  8
_0-0_0
  6
CONTINUOUS
 62
    7
 10
73.480313339748989
 20
184.68387010357426
 11
73.480090643908653
 21
184.67684281261145
  0
LINE
  8
_0-0_0
  6
CONTINUOUS
 62
    7
 10
145.70874607240842
 20
232.63560449177101
 11
145.23804129780962
 21
231.82375443370518
  0
LINE
  8
_0-0_0
  6
CONTINUOUS
 62
    7
 10
144.60165081797433
 20
232.63560449177101
 11
145.07235559257313
 21
231.82375443370518
  0
LINE
  8
_0-0_0
  6
CONTINUOUS
 62
    7
 10
144.51880796535613
 20
232.92196659850663
 11
144.51880796535613
 21
233.77442153146706
  0
LINE
  8
_0-0_0
  6
CONTINUOUS
 62
    7
 10
145.79158892502662
 20
232.92196659850663
 11
145.79158892502662
 21
233.77442153146706
  0
LINE
  8
_0-0_0
  6
CONTINUOUS
 62
    7
 10
145.07235559257313
 20
231.82375443370518
 11
143.48136702099362
 21
231.0282601479156
  0
LINE
  8
_0-0_0
  6
CONTINUOUS
 62
    7
 10
143.01066224639493
 20
231.84011020598132
 11
143.48136702099362
 21
231.0282601479156
  0
LINE
  8
_0-0_0
  6
CONTINUOUS
 62
    7
 10
143.01066224639493
 20
231.84011020598132
 11
144.60165081797433
 21
232.63560449177101
  0
LINE
  8
_0-0_0
  6
CONTINUOUS
 62
    7
 10
146.82902986938893
 20
231.0282601479156
 11
145.23804129780962
 21
231.82375443370518
  0
LINE
  8
_0-0_0
  6
CONTINUOUS
 62
    7
 10
145.70874607240842
 20
232.63560449177101
 11
147.29973464398782
 21
231.84011020598132
  0
LINE
  8
_0-0_0
  6
CONTINUOUS
 62
    7
 10
146.82902986938893
 20
231.0282601479156
 11
147.29973464398782
 21
231.84011020598132
  0
LINE
  8
_0-0_0
  6
CONTINUOUS
 62
    7
 10
147.38257749660602
 20
232.12647231271706
 11
145.79158892502662
 21
232.92196659850663
  0
LINE
  8
_0-0_0
  6
CONTINUOUS
 62
    7
 10
144.51880796535613
 20
232.92196659850663
 11
142.92781939377662
 21
232.12647231271706
  0
LINE
  8
_0-0_0
  6
CONTINUOUS
 62
    7
 10
143.68137262962972
 20
230.82679464432601
 11
145.15519844519142
 21
231.563719924098
  0
LINE
  8
_0-0_0
  6
CONTINUOUS
 62
    7
 10
145.15519844519142
 20
231.563719924098
 11
146.62902426075303
 21
230.82679464432601
  0
LINE
  8
_0-0_0
  6
CONTINUOUS
 62
    7
 10
142.92781939377662
 20
232.12647231271706
 11
142.92781939377662
 21
232.97892724567737
  0
LINE
  8
_0-0_0
  6
CONTINUOUS
 62
    7
 10
144.51880796535613
 20
233.77442153146706
 11
142.92781939377662
 21
232.97892724567737
  0
LINE
  8
_0-0_0
  6
CONTINUOUS
 62
    7
 10
147.38257749660602
 20
232.12647231271706
 11
147.38257749660602
 21
232.97892724567737
  0
LINE
  8
_0-0_0
  6
CONTINUOUS
 62
    7
 10
147.38257749660602
 20
232.97892724567737
 11
145.79158892502662
 21
233.77442153146706
  0
LINE
  8
_0-0_0
  6
CONTINUOUS
 62
    7
 10
145.26127589715503
 20
230.14289571854476
 11
146.62902426075303
 21
230.82679464432601
  0
LINE
  8
_0-0_0
  6
CONTINUOUS
 62
    7
 10
145.26127589715503
 20
230.14289571854476
 11
145.22591674650053
 21
230.1605876658632
  0
LINE
  8
_0-0_0
  6
CONTINUOUS
 62
    7
 10
145.08448014388222
 20
230.1605876658632
 11
145.04912099322763
 21
230.14289571854476
  0
LINE
  8
_0-0_0
  6
CONTINUOUS
 62
    7
 10
143.68137262962972
 20
230.82679464432601
 11
145.04912099322763
 21
230.14289571854476
  0
LINE
  8
_0-0_0
  6
CONTINUOUS
 62
    7
 10
144.70520438374712
 20
231.24687323121361
 11
144.70542707958754
 21
231.2539252661586
  0
LINE
  8
_0-0_0
  6
CONTINUOUS
 62
    7
 10
155.65572796641183
 20
227.98989707781416
 11
155.65572796641183
 21
228.84235201077445
  0
LINE
  8
_0-0_0
  6
CONTINUOUS
 62
    7
 10
155.10218033919472
 20
226.89168491301265
 11
155.57288511379352
 21
227.70353497107857
  0
LINE
  8
_0-0_0
  6
CONTINUOUS
 62
    7
 10
153.53442636696082
 20
226.00634522762417
 11
154.90217473055873
 21
226.69021940942315
  0
LINE
  8
_0-0_0
  6
CONTINUOUS
 62
    7
 10
153.53442636696082
 20
226.00634522762417
 11
153.53442636696082
 21
226.02408666290705
  0
LINE
  8
_0-0_0
  6
CONTINUOUS
 62
    7
 10
155.65384742375971
 20
228.84138699546625
 11
155.65572796641183
 21
228.84235201077445
  0
LINE
  8
_0-0_0
  6
CONTINUOUS
 62
    7
 10
157.16387368537292
 20
226.90804068528885
 11
155.57288511379352
 21
227.70353497107857
  0
LINE
  8
_0-0_0
  6
CONTINUOUS
 62
    7
 10
157.16387368537292
 20
226.90804068528885
 11
156.69316891077412
 21
226.09619062722297
  0
LINE
  8
_0-0_0
  6
CONTINUOUS
 62
    7
 10
155.10218033919472
 20
226.89168491301265
 11
156.69316891077412
 21
226.09619062722297
  0
LINE
  8
_0-0_0
  6
CONTINUOUS
 62
    7
 10
155.65572796641183
 20
227.98989707781416
 11
157.24671653799112
 21
227.19440279202445
  0
LINE
  8
_0-0_0
  6
CONTINUOUS
 62
    7
 10
156.37602529010263
 20
225.95329412965117
 11
154.90217473055873
 21
226.69021940942315
  0
LINE
  8
_0-0_0
  6
CONTINUOUS
 62
    7
 10
155.65572796641183
 20
228.84235201077445
 11
157.24671653799112
 21
228.04685772498485
  0
LINE
  8
_0-0_0
  6
CONTINUOUS
 62
    7
 10
157.24671653799112
 20
227.19440279202445
 11
157.24671653799112
 21
228.04685772498485
  0
LINE
  8
_0-0_0
  6
CONTINUOUS
 62
    7
 10
153.56976077363313
 20
225.91793497899667
 11
153.53442636696082
 21
225.90026777566047
  0
LINE
  8
_0-0_0
  6
CONTINUOUS
 62
    7
 10
153.53442636696082
 20
226.00634522762417
 11
153.56976077363313
 21
225.98865328030575
  0
LINE
  8
_0-0_0
  6
CONTINUOUS
 62
    7
 10
154.90217473055873
 20
225.21639359386145
 11
156.37602529010263
 21
225.95329412965117
  0
LINE
  8
_0-0_0
  6
CONTINUOUS
 62
    7
 10
154.90217473055873
 20
225.21639359386145
 11
153.53442636696082
 21
225.90026777566047
  0
LINE
  8
_0-0_0
  6
CONTINUOUS
 62
    7
 10
156.10574677183834
 20
225.99659609861237
 11
156.10559830794472
 21
226.00206451869255
  0
LINE
  8
_0-0_0
  6
CONTINUOUS
 62
    7
 10
153.53442636696082
 20
225.90026777566047
 11
153.53442636696082
 21
226.00634522762417
  0
LINE
  8
_0-0_0
  6
CONTINUOUS
 62
    7
 10
64.651091356535318
 20
189.94387162120526
 11
64.651091356535318
 21
189.96163780047047
  0
LINE
  8
_0-0_0
  6
CONTINUOUS
 62
    7
 10
63.283318248955112
 20
190.62777054698645
 11
64.651091356535318
 21
189.94387162120526
  0
LINE
  8
_0-0_0
  6
CONTINUOUS
 62
    7
 10
62.612607865720292
 20
191.64108610864187
 11
63.083312640319122
 21
190.82923605057596
  0
LINE
  8
_0-0_0
  6
CONTINUOUS
 62
    7
 10
62.529765013102065
 20
191.92744821537755
 11
62.529765013102065
 21
192.77990314833795
  0
LINE
  8
_0-0_0
  6
CONTINUOUS
 62
    7
 10
62.529765013102065
 20
192.77990314833795
 11
62.531670299736362
 21
192.77893813302956
  0
LINE
  8
_0-0_0
  6
CONTINUOUS
 62
    7
 10
62.612607865720292
 20
191.64108610864187
 11
61.021619294140919
 21
190.84559182285216
  0
LINE
  8
_0-0_0
  6
CONTINUOUS
 62
    7
 10
61.49232406873972
 20
190.03374176478636
 11
63.083312640319122
 21
190.82923605057596
  0
LINE
  8
_0-0_0
  6
CONTINUOUS
 62
    7
 10
61.021619294140919
 20
190.84559182285216
 11
61.49232406873972
 21
190.03374176478636
  0
LINE
  8
_0-0_0
  6
CONTINUOUS
 62
    7
 10
60.938776441522663
 20
191.13195392958795
 11
62.529765013102065
 21
191.92744821537755
  0
LINE
  8
_0-0_0
  6
CONTINUOUS
 62
    7
 10
63.283318248955112
 20
190.62777054698645
 11
61.809492433393444
 21
189.89084526721456
  0
LINE
  8
_0-0_0
  6
CONTINUOUS
 62
    7
 10
60.938776441522663
 20
191.98440886254815
 11
62.529765013102065
 21
192.77990314833795
  0
LINE
  8
_0-0_0
  6
CONTINUOUS
 62
    7
 10
60.938776441522663
 20
191.13195392958795
 11
60.938776441522663
 21
191.98440886254815
  0
LINE
  8
_0-0_0
  6
CONTINUOUS
 62
    7
 10
64.615732205880761
 20
189.92620441786906
 11
64.651091356535318
 21
189.94387162120526
  0
LINE
  8
_0-0_0
  6
CONTINUOUS
 62
    7
 10
64.651091356535318
 20
189.83781891322386
 11
64.615732205880761
 21
189.85548611655994
  0
LINE
  8
_0-0_0
  6
CONTINUOUS
 62
    7
 10
64.651091356535318
 20
189.83781891322386
 11
63.283318248955112
 21
189.15391998744255
  0
LINE
  8
_0-0_0
  6
CONTINUOUS
 62
    7
 10
61.809492433393444
 20
189.89084526721456
 11
63.283318248955112
 21
189.15391998744255
  0
LINE
  8
_0-0_0
  6
CONTINUOUS
 62
    7
 10
62.079770951657792
 20
189.93414723617565
 11
62.079894671569122
 21
189.92870356007765
  0
LINE
  8
_0-0_0
  6
CONTINUOUS
 62
    7
 10
64.651091356535318
 20
189.83781891322386
 11
64.651091356535318
 21
189.94387162120526
  0
LINE
  8
_0-0_0
  6
CONTINUOUS
 62
    7
 10
147.38257749660602
 20
232.97026685188507
 11
147.38257749660602
 21
232.13513270650924
  0
LINE
  8
_0-0_0
  6
CONTINUOUS
 62
    7
 10
155.57288511379352
 20
227.71219536487075
 11
155.10218033919472
 21
226.90034530680495
  0
LINE
  8
_0-0_0
  6
CONTINUOUS
 62
    7
 10
147.38257749660602
 20
232.13513270650924
 11
155.65572796641183
 21
227.99855747160635
  0
LINE
  8
_0-0_0
  6
CONTINUOUS
 62
    7
 10
155.65572796641183
 20
228.83369161698226
 11
147.38257749660602
 21
232.97026685188507
  0
LINE
  8
_0-0_0
  6
CONTINUOUS
 62
    7
 10
155.65572796641183
 20
228.83369161698226
 11
155.65572796641183
 21
227.99855747160635
  0
LINE
  8
_0-0_0
  6
CONTINUOUS
 62
    7
 10
154.90217473055873
 20
226.69887980321536
 11
153.54855518083323
 21
226.02205765636145
  0
LINE
  8
_0-0_0
  6
CONTINUOUS
 62
    7
 10
64.651091356535318
 20
189.86380009460055
 11
64.651091356535318
 21
189.94387162120526
  0
LINE
  8
_0-0_0
  6
CONTINUOUS
 62
    7
 10
64.651091356535318
 20
189.86380009460055
 11
72.924241826341074
 21
185.72722485969766
  0
LINE
  8
_0-0_0
  6
CONTINUOUS
 62
    7
 10
72.924241826341074
 20
185.82248919141216
 11
64.651091356535318
 21
189.95906442631505
  0
LINE
  8
_0-0_0
  6
CONTINUOUS
 62
    7
 10
72.924241826341074
 20
185.72722485969766
 11
72.924241826341074
 21
185.82248919141216
  0
LINE
  8
_0-0_0
  6
CONTINUOUS
 62
    7
 10
71.55646871876084
 20
185.02600514633187
 11
72.910088268486334
 21
185.70282729318575
  0
LINE
  8
_0-0_0
  6
CONTINUOUS
 62
    7
 10
73.136371986286179
 20
185.72722485969766
 11
153.53442636696082
 21
225.92624895703716
  0
LINE
  8
_0-0_0
  6
CONTINUOUS
 62
    7
 10
153.53442636696082
 20
225.92624895703716
 11
153.53442636696082
 21
226.00634522762417
  0
LINE
  8
_0-0_0
  6
CONTINUOUS
 62
    7
 10
153.53442636696082
 20
226.02151328875166
 11
73.136371986286179
 21
185.82248919141216
  0
LINE
  8
_0-0_0
  6
CONTINUOUS
 62
    7
 10
73.136371986286179
 20
185.72722485969766
 11
73.136371986286179
 21
185.82248919141216
  0
LINE
  8
_0-0_0
  6
CONTINUOUS
 62
    7
 10
74.504145093866441
 20
185.02600514633187
 11
73.150500800158625
 21
185.70282729318575
  0
LINE
  8
_0-0_0
  6
CONTINUOUS
 62
    7
 10
142.92781939377662
 20
232.97026685188507
 11
142.92781939377662
 21
232.13513270650924
  0
LINE
  8
_0-0_0
  6
CONTINUOUS
 62
    7
 10
63.083312640319122
 20
190.83789644436825
 11
62.612607865720292
 21
191.64974650243417
  0
LINE
  8
_0-0_0
  6
CONTINUOUS
 62
    7
 10
62.529765013102065
 20
191.93610860916976
 11
142.92781939377662
 21
232.13513270650924
  0
LINE
  8
_0-0_0
  6
CONTINUOUS
 62
    7
 10
142.92781939377662
 20
232.97026685188507
 11
62.529765013102065
 21
192.77124275454557
  0
LINE
  8
_0-0_0
  6
CONTINUOUS
 62
    7
 10
62.529765013102065
 20
192.77124275454557
 11
62.529765013102065
 21
191.93610860916976
  0
LINE
  8
_0-0_0
  6
CONTINUOUS
 62
    7
 10
63.283318248955112
 20
190.63643094077875
 11
64.636937798680606
 21
189.95960879392476
  0
LINE
  8
_0-0_0
  6
CONTINUOUS
 62
    7
 10
145.36732860513644
 20
250.18638739136986
 11
144.94306828524623
 21
250.18638739136986
  0
LINE
  8
_0-0_0
  6
CONTINUOUS
 62
    7
 10
156.46891419951993
 20
244.6356193381605
 11
145.36732860513644
 21
250.18638739136986
  0
LINE
  8
_0-0_0
  6
CONTINUOUS
 62
    7
 10
156.46891419951993
 20
244.42348917821539
 11
156.46891419951993
 21
244.6356193381605
  0
LINE
  8
_0-0_0
  6
CONTINUOUS
 62
    7
 10
154.63043631734084
 20
243.5042502371258
 11
156.46891419951993
 21
244.42348917821539
  0
LINE
  8
_0-0_0
  6
CONTINUOUS
 62
    7
 10
143.10459040306722
 20
249.26714845028039
 11
154.63043631734084
 21
243.5042502371258
  0
LINE
  8
_0-0_0
  6
CONTINUOUS
 62
    7
 10
143.10459040306722
 20
249.26714845028039
 11
144.94306828524623
 21
250.18638739136986
  0
LINE
  8
_0-0_0
  6
CONTINUOUS
 62
    7
 10
144.94306828524623
 20
250.18638739136986
 11
144.94306828524623
 21
250.27299132929227
  0
LINE
  8
_0-0_0
  6
CONTINUOUS
 62
    7
 10
144.94306828524623
 20
250.27299132929227
 11
145.36732860513644
 21
250.27299132929227
  0
LINE
  8
_0-0_0
  6
CONTINUOUS
 62
    7
 10
145.36732860513644
 20
250.27299132929227
 11
145.36732860513644
 21
250.18638739136986
  0
LINE
  8
_0-0_0
  6
CONTINUOUS
 62
    7
 10
143.10459040306722
 20
249.39705435716382
 11
143.10459040306722
 21
249.70016813989173
  0
LINE
  8
_0-0_0
  6
CONTINUOUS
 62
    7
 10
143.03387210175813
 20
249.62150702027611
 11
143.03387210175813
 21
249.3184179815305
  0
LINE
  8
_0-0_0
  6
CONTINUOUS
 62
    7
 10
142.32676332061362
 20
249.31126697065622
 11
142.99851295110352
 21
249.64714178590111
  0
LINE
  8
_0-0_0
  6
CONTINUOUS
 62
    7
 10
142.32676332061362
 20
249.31126697065622
 11
142.32676332061362
 21
249.39611408583789
  0
LINE
  8
_0-0_0
  6
CONTINUOUS
 62
    7
 10
143.04802565961282
 20
249.75673288334622
 11
142.32676332061362
 21
249.39611408583789
  0
LINE
  8
_0-0_0
  6
CONTINUOUS
 62
    7
 10
144.94306828524623
 20
250.27299132929227
 11
143.13994955372172
 21
249.37144433552101
  0
LINE
  8
_0-0_0
  6
CONTINUOUS
 62
    7
 10
156.46891419951993
 20
244.6356193381605
 11
156.46891419951993
 21
244.72222327608279
  0
LINE
  8
_0-0_0
  6
CONTINUOUS
 62
    7
 10
156.46891419951993
 20
244.72222327608279
 11
145.36732860513644
 21
250.27299132929227
  0
LINE
  8
_0-0_0
  6
CONTINUOUS
 62
    7
 10
142.27019857715922
 20
249.33954934238341
 11
64.276319001172141
 21
210.34261264738765
  0
LINE
  8
_0-0_0
  6
CONTINUOUS
 62
    7
 10
64.281985373110501
 20
210.37371583309294
 11
63.611646149609669
 21
210.03855859333356
  0
LINE
  8
_0-0_0
  6
CONTINUOUS
 62
    7
 10
75.186980028410346
 20
204.21553250327867
 11
75.84729793909446
 21
204.54569145862067
  0
LINE
  8
_0-0_0
  6
CONTINUOUS
 62
    7
 10
63.661134114136672
 20
209.97845546041546
 11
75.186980028410346
 21
204.21553250327867
  0
LINE
  8
_0-0_0
  6
CONTINUOUS
 62
    7
 10
63.661134114136672
 20
209.97845546041546
 11
64.276319001172141
 21
210.28604790393325
  0
LINE
  8
_0-0_0
  6
CONTINUOUS
 62
    7
 10
142.32676332061362
 20
249.31126697065622
 11
142.36212247126824
 21
249.29357502333778
  0
LINE
  8
_0-0_0
  6
CONTINUOUS
 62
    7
 10
153.85260923488732
 20
243.54834401351945
 11
154.17222725378514
 21
243.70814065097716
  0
LINE
  8
_0-0_0
  6
CONTINUOUS
 62
    7
 10
153.81725008423274
 20
243.5660112168556
 11
153.85260923488732
 21
243.54834401351945
  0
LINE
  8
_0-0_0
  6
CONTINUOUS
 62
    7
 10
75.823370508245603
 20
204.56907452185985
 11
153.81725008423274
 21
243.5660112168556
  0
LINE
  8
_0-0_0
  6
CONTINUOUS
 62
    7
 10
80.667054524292922
 20
213.14274065625585
 11
80.101357601784514
 21
212.85991693898396
  0
LINE
  8
_0-0_0
  6
CONTINUOUS
 62
    7
 10
80.949902985547169
 20
212.43565661909375
 11
81.51557516407334
 21
212.71848033636576
  0
LINE
  8
_0-0_0
  6
CONTINUOUS
 62
    7
 10
137.51843845522092
 20
240.71990888894175
 11
138.08413537772933
 21
241.00275735019591
  0
LINE
  8
_0-0_0
  6
CONTINUOUS
 62
    7
 10
137.23561473794902
 20
241.42701767008612
 11
136.66991781544053
 21
241.14416920883195
  0
LINE
  8
_0-0_0
  6
CONTINUOUS
 62
    7
 10
140.75346669635263
 20
242.92078713535216
 11
139.87997937846833
 21
242.48405584840111
  0
LINE
  8
_0-0_0
  6
CONTINUOUS
 62
    7
 10
140.19818699037722
 20
242.32495204244674
 11
141.07164956427923
 21
242.76168332939778
  0
LINE
  8
_0-0_0
  6
CONTINUOUS
 62
    7
 10
144.83699083328253
 20
245.40448909903466
 11
143.84705833486623
 21
244.90953522181758
  0
LINE
  8
_0-0_0
  6
CONTINUOUS
 62
    7
 10
143.84705833486623
 20
244.90953522181758
 11
145.04912099322763
 21
244.30847914865456
  0
LINE
  8
_0-0_0
  6
CONTINUOUS
 62
    7
 10
145.04912099322763
 20
244.30847914865456
 11
145.27555317492113
 21
244.42168286751019
  0
LINE
  8
_0-0_0
  6
CONTINUOUS
 62
    7
 10
145.75622977437212
 20
244.66204591121789
 11
146.03907823562633
 21
244.80345776985382
  0
LINE
  8
_0-0_0
  6
CONTINUOUS
 62
    7
 10
146.03907823562633
 20
244.80345776985382
 11
145.76766149417782
 21
244.93917851256924
  0
LINE
  8
_0-0_0
  6
CONTINUOUS
 62
    7
 10
145.15519844519142
 20
245.28074444373476
 11
145.79158892502662
 21
244.96256157580831
  0
LINE
  8
_0-0_0
  6
CONTINUOUS
 62
    7
 10
145.11983929453683
 20
245.26307724039862
 11
145.15519844519142
 21
245.28074444373476
  0
LINE
  8
_0-0_0
  6
CONTINUOUS
 62
    7
 10
145.11983929453683
 20
245.26307724039862
 11
144.83699083328253
 21
245.40448909903466
  0
LINE
  8
_0-0_0
  6
CONTINUOUS
 62
    7
 10
73.348502146231283
 20
208.45816044616305
 11
74.338459388629929
 21
208.95313906736226
  0
LINE
  8
_0-0_0
  6
CONTINUOUS
 62
    7
 10
74.338459388629929
 20
208.95313906736226
 11
73.136371986286179
 21
209.55419514052517
  0
LINE
  8
_0-0_0
  6
CONTINUOUS
 62
    7
 10
73.136371986286179
 20
209.55419514052517
 11
72.146414743887533
 21
209.05921651932607
  0
LINE
  8
_0-0_0
  6
CONTINUOUS
 62
    7
 10
72.146414743887533
 20
209.05921651932607
 11
72.429263205141751
 21
208.91777991670776
  0
LINE
  8
_0-0_0
  6
CONTINUOUS
 62
    7
 10
72.393904054487166
 20
208.90011271337156
 11
72.429263205141751
 21
208.91777991670776
  0
LINE
  8
_0-0_0
  6
CONTINUOUS
 62
    7
 10
73.136371986286179
 20
208.56423789812666
 11
73.348502146231283
 21
208.45816044616305
  0
LINE
  8
_0-0_0
  6
CONTINUOUS
 62
    7
 10
130.16452692650472
 20
237.89149850834622
 11
129.59885474797852
 21
237.60865004709206
  0
LINE
  8
_0-0_0
  6
CONTINUOUS
 62
    7
 10
130.44737538775894
 20
237.18438972720173
 11
131.01307231026743
 21
237.46723818845601
  0
LINE
  8
_0-0_0
  6
CONTINUOUS
 62
    7
 10
88.020966053009133
 20
215.97117578083356
 11
88.586638231535332
 21
216.25402424208795
  0
LINE
  8
_0-0_0
  6
CONTINUOUS
 62
    7
 10
87.738117591754971
 20
216.67828456197796
 11
87.172445413228715
 21
216.39543610072377
  0
LINE
  8
_0-0_0
  6
CONTINUOUS
 62
    7
 10
116.87092143136113
 20
228.69910909745096
 11
127.47752840454523
 21
234.00241258404299
  0
LINE
  8
_0-0_0
  6
CONTINUOUS
 62
    7
 10
127.47752840454523
 20
234.00241258404299
 11
123.23490046166093
 21
236.12371418349403
  0
LINE
  8
_0-0_0
  6
CONTINUOUS
 62
    7
 10
123.23490046166093
 20
236.12371418349403
 11
112.62829348847683
 21
230.82041069690206
  0
LINE
  8
_0-0_0
  6
CONTINUOUS
 62
    7
 10
112.62829348847683
 20
230.82041069690206
 11
116.87092143136113
 21
228.69910909745096
  0
LINE
  8
_0-0_0
  6
CONTINUOUS
 62
    7
 10
142.12878671852332
 20
248.66262821960061
 11
64.417730859808131
 21
209.80710338324067
  0
LINE
  8
_0-0_0
  6
CONTINUOUS
 62
    7
 10
64.276319001172141
 20
209.90959295777617
 11
64.276319001172141
 21
210.34261264738765
  0
LINE
  8
_0-0_0
  6
CONTINUOUS
 62
    7
 10
142.27019857715922
 20
248.90652965277195
 11
142.27019857715922
 21
249.33954934238341
  0
LINE
  8
_0-0_0
  6
CONTINUOUS
 62
    7
 10
142.18535146197763
 20
248.63434584787331
 11
142.12878671852332
 21
248.66262821960061
  0
LINE
  8
_0-0_0
  6
CONTINUOUS
 62
    7
 10
142.27019857715922
 20
248.90652965277195
 11
142.32676332061362
 21
248.87824728104476
  0
LINE
  8
_0-0_0
  6
CONTINUOUS
 62
    7
 10
142.32676332061362
 20
248.87824728104476
 11
142.32676332061362
 21
249.26796500169507
  0
LINE
  8
_0-0_0
  6
CONTINUOUS
 62
    7
 10
64.417730859808131
 20
209.80710338324067
 11
64.474320347244799
 21
209.77882101151346
  0
LINE
  8
_0-0_0
  6
CONTINUOUS
 62
    7
 10
64.474320347244799
 20
209.77882101151346
 11
142.18535146197763
 21
248.63434584787331
  0
LINE
  8
_0-0_0
  6
CONTINUOUS
 62
    7
 10
145.04912099322763
 20
244.66481723723143
 11
145.11983929453683
 21
244.70015164390361
  0
LINE
  8
_0-0_0
  6
CONTINUOUS
 62
    7
 10
145.11983929453683
 20
244.70015164390361
 11
145.22591674650053
 21
244.51721938302956
  0
LINE
  8
_0-0_0
  6
CONTINUOUS
 62
    7
 10
145.22591674650053
 20
244.51721938302956
 11
145.15519844519142
 21
244.48186023237497
  0
LINE
  8
_0-0_0
  6
CONTINUOUS
 62
    7
 10
145.15519844519142
 20
244.48186023237497
 11
145.04912099322763
 21
244.66481723723143
  0
LINE
  8
_0-0_0
  6
CONTINUOUS
 62
    7
 10
145.65017706639074
 20
244.30508922308434
 11
145.75622977437212
 21
244.38196877597716
  0
LINE
  8
_0-0_0
  6
CONTINUOUS
 62
    7
 10
145.22591674650053
 20
244.51721938302956
 11
145.65017706639074
 21
244.30508922308434
  0
LINE
  8
_0-0_0
  6
CONTINUOUS
 62
    7
 10
145.11983929453683
 20
244.70015164390361
 11
145.11983929453683
 21
245.21977527143747
  0
LINE
  8
_0-0_0
  6
CONTINUOUS
 62
    7
 10
145.75622977437212
 20
244.90156765952861
 11
145.11983929453683
 21
245.21977527143747
  0
LINE
  8
_0-0_0
  6
CONTINUOUS
 62
    7
 10
145.75622977437212
 20
244.38196877597716
 11
145.75622977437212
 21
244.90156765952861
  0
LINE
  8
_0-0_0
  6
CONTINUOUS
 62
    7
 10
145.04912099322763
 20
244.66481723723143
 11
145.04912099322763
 21
245.22771808974403
  0
LINE
  8
_0-0_0
  6
CONTINUOUS
 62
    7
 10
145.57945876508163
 20
244.26973007242987
 11
145.65017706639074
 21
244.30508922308434
  0
LINE
  8
_0-0_0
  6
CONTINUOUS
 62
    7
 10
145.57945876508163
 20
244.26973007242987
 11
145.15519844519142
 21
244.48186023237497
  0
LINE
  8
_0-0_0
  6
CONTINUOUS
 62
    7
 10
145.04912099322763
 20
244.39508308657673
 11
145.04912099322763
 21
244.30847914865456
  0
LINE
  8
_0-0_0
  6
CONTINUOUS
 62
    7
 10
145.04912099322763
 20
244.39508308657673
 11
143.93366227278844
 21
244.95283719077861
  0
LINE
  8
_0-0_0
  6
CONTINUOUS
 62
    7
 10
145.95247429770401
 20
244.84675973881497
 11
145.75622977437212
 21
244.74864984914029
  0
LINE
  8
_0-0_0
  6
CONTINUOUS
 62
    7
 10
145.50681043315592
 20
244.62394017853205
 11
145.43297439008163
 21
244.58699741301268
  0
LINE
  8
_0-0_0
  6
CONTINUOUS
 62
    7
 10
145.18894923699884
 20
244.46498483647122
 11
145.04912099322763
 21
244.39508308657673
  0
LINE
  8
_0-0_0
  6
CONTINUOUS
 62
    7
 10
153.71119737625133
 20
242.87142289073643
 11
76.000141517536179
 21
204.01589805437666
  0
LINE
  8
_0-0_0
  6
CONTINUOUS
 62
    7
 10
75.858729658900245
 20
204.11838762891216
 11
75.858729658900245
 21
204.50810534956247
  0
LINE
  8
_0-0_0
  6
CONTINUOUS
 62
    7
 10
153.85260923488732
 20
243.50504204455831
 11
75.858729658900245
 21
204.50810534956247
  0
LINE
  8
_0-0_0
  6
CONTINUOUS
 62
    7
 10
153.85260923488732
 20
243.11532432390788
 11
153.85260923488732
 21
243.50504204455831
  0
LINE
  8
_0-0_0
  6
CONTINUOUS
 62
    7
 10
153.76776211970574
 20
242.84314051900924
 11
153.71119737625133
 21
242.87142289073643
  0
LINE
  8
_0-0_0
  6
CONTINUOUS
 62
    7
 10
153.85260923488732
 20
243.11532432390788
 11
153.90917397834173
 21
243.0870419521807
  0
LINE
  8
_0-0_0
  6
CONTINUOUS
 62
    7
 10
153.90917397834173
 20
243.0870419521807
 11
153.90917397834173
 21
243.52006164179227
  0
LINE
  8
_0-0_0
  6
CONTINUOUS
 62
    7
 10
76.000141517536179
 20
204.01589805437666
 11
76.05670626099058
 21
203.98761568264945
  0
LINE
  8
_0-0_0
  6
CONTINUOUS
 62
    7
 10
76.05670626099058
 20
203.98761568264945
 11
153.76776211970574
 21
242.84314051900924
  0
LINE
  8
_0-0_0
  6
CONTINUOUS
 62
    7
 10
141.07164956427923
 20
242.76168332939778
 11
141.07164956427923
 21
242.84828726732007
  0
LINE
  8
_0-0_0
  6
CONTINUOUS
 62
    7
 10
141.12022200146254
 20
242.88453720133612
 11
141.07164956427923
 21
242.84828726732007
  0
LINE
  8
_0-0_0
  6
CONTINUOUS
 62
    7
 10
140.19818699037722
 20
242.32495204244674
 11
140.19818699037722
 21
242.41155598036903
  0
LINE
  8
_0-0_0
  6
CONTINUOUS
 62
    7
 10
141.07164956427923
 20
242.84828726732007
 11
140.19818699037722
 21
242.41155598036903
  0
LINE
  8
_0-0_0
  6
CONTINUOUS
 62
    7
 10
138.08413537772933
 20
241.00275735019591
 11
138.08413537772933
 21
241.08936128811831
  0
LINE
  8
_0-0_0
  6
CONTINUOUS
 62
    7
 10
136.66991781544053
 20
240.80651282686404
 11
136.66991781544053
 21
240.71990888894175
  0
LINE
  8
_0-0_0
  6
CONTINUOUS
 62
    7
 10
137.51843845522092
 20
240.80651282686404
 11
137.51843845522092
 21
240.71990888894175
  0
LINE
  8
_0-0_0
  6
CONTINUOUS
 62
    7
 10
138.08413537772933
 20
241.08936128811831
 11
137.51843845522092
 21
240.80651282686404
  0
LINE
  8
_0-0_0
  6
CONTINUOUS
 62
    7
 10
131.01307231026743
 20
237.46723818845601
 11
131.01307231026743
 21
237.55381738239601
  0
LINE
  8
_0-0_0
  6
CONTINUOUS
 62
    7
 10
130.44737538775894
 20
237.18438972720173
 11
130.44737538775894
 21
237.27099366512414
  0
LINE
  8
_0-0_0
  6
CONTINUOUS
 62
    7
 10
131.01307231026743
 20
237.55381738239601
 11
130.44737538775894
 21
237.27099366512414
  0
LINE
  8
_0-0_0
  6
CONTINUOUS
 62
    7
 10
116.87092143136113
 20
228.69910909745096
 11
116.87092143136113
 21
228.78571303537336
  0
LINE
  8
_0-0_0
  6
CONTINUOUS
 62
    7
 10
127.39092446662293
 20
234.04571455300425
 11
116.87092143136113
 21
228.78571303537336
  0
LINE
  8
_0-0_0
  6
CONTINUOUS
 62
    7
 10
116.87092143136113
 20
228.78571303537336
 11
112.71489742639913
 21
230.86371266586309
  0
LINE
  8
_0-0_0
  6
CONTINUOUS
 62
    7
 10
88.586638231535332
 20
216.25402424208795
 11
88.586638231535332
 21
216.34062818001016
  0
LINE
  8
_0-0_0
  6
CONTINUOUS
 62
    7
 10
88.020966053009133
 20
215.97117578083356
 11
88.020966053009133
 21
216.05777971875585
  0
LINE
  8
_0-0_0
  6
CONTINUOUS
 62
    7
 10
88.586638231535332
 20
216.34062818001016
 11
88.020966053009133
 21
216.05777971875585
  0
LINE
  8
_0-0_0
  6
CONTINUOUS
 62
    7
 10
81.51557516407334
 20
212.71848033636576
 11
81.51557516407334
 21
212.80508427428805
  0
LINE
  8
_0-0_0
  6
CONTINUOUS
 62
    7
 10
80.101357601784514
 20
212.43565661909375
 11
80.101357601784514
 21
212.52226055701595
  0
LINE
  8
_0-0_0
  6
CONTINUOUS
 62
    7
 10
80.949902985547169
 20
212.52226055701595
 11
80.949902985547169
 21
212.43565661909375
  0
LINE
  8
_0-0_0
  6
CONTINUOUS
 62
    7
 10
81.51557516407334
 20
212.80508427428805
 11
80.949902985547169
 21
212.52226055701595
  0
LINE
  8
_0-0_0
  6
CONTINUOUS
 62
    7
 10
77.113843415234641
 20
211.02849109174997
 11
77.065270978051387
 21
211.06474102576607
  0
LINE
  8
_0-0_0
  6
CONTINUOUS
 62
    7
 10
63.625774963482144
 20
209.61437250539015
 11
63.625774963482144
 21
209.91746154413596
  0
LINE
  8
_0-0_0
  6
CONTINUOUS
 62
    7
 10
61.716603523976204
 20
208.57317047572386
 11
63.555081406155267
 21
209.49240941681336
  0
LINE
  8
_0-0_0
  6
CONTINUOUS
 62
    7
 10
61.716603523976204
 20
208.65977441364606
 11
61.716603523976204
 21
208.57317047572386
  0
LINE
  8
_0-0_0
  6
CONTINUOUS
 62
    7
 10
63.51972225550071
 20
209.56132140741715
 11
61.716603523976204
 21
208.65977441364606
  0
LINE
  8
_0-0_0
  6
CONTINUOUS
 62
    7
 10
63.555081406155267
 20
209.92542910642487
 11
63.555081406155267
 21
209.62231532369677
  0
LINE
  8
_0-0_0
  6
CONTINUOUS
 62
    7
 10
75.080902576446647
 20
203.72948645967656
 11
63.555081406155267
 21
209.49240941681336
  0
LINE
  8
_0-0_0
  6
CONTINUOUS
 62
    7
 10
63.625774963482144
 20
209.61437250539015
 11
75.151620877755789
 21
203.85144954825336
  0
LINE
  8
_0-0_0
  6
CONTINUOUS
 62
    7
 10
75.151620877755789
 20
204.15453858699905
 11
63.625774963482144
 21
209.91746154413596
  0
LINE
  8
_0-0_0
  6
CONTINUOUS
 62
    7
 10
75.151620877755789
 20
203.85144954825336
 11
75.151620877755789
 21
204.15453858699905
  0
LINE
  8
_0-0_0
  6
CONTINUOUS
 62
    7
 10
72.818164374377375
 20
202.81024751858695
 11
73.242424694267584
 21
202.81024751858695
  0
LINE
  8
_0-0_0
  6
CONTINUOUS
 62
    7
 10
72.818164374377375
 20
202.81024751858695
 11
61.716603523976204
 21
208.36104031577875
  0
LINE
  8
_0-0_0
  6
CONTINUOUS
 62
    7
 10
61.716603523976204
 20
208.57317047572386
 11
61.716603523976204
 21
208.36104031577875
  0
LINE
  8
_0-0_0
  6
CONTINUOUS
 62
    7
 10
73.242424694267584
 20
202.81024751858695
 11
75.080902576446647
 21
203.72948645967656
  0
LINE
  8
_0-0_0
  6
CONTINUOUS
 62
    7
 10
72.429263205141751
 20
208.35487906419505
 11
72.499981506450894
 21
208.39023821484966
  0
LINE
  8
_0-0_0
  6
CONTINUOUS
 62
    7
 10
72.499981506450894
 20
208.39023821484966
 11
72.606034214432327
 21
208.20728120999325
  0
LINE
  8
_0-0_0
  6
CONTINUOUS
 62
    7
 10
72.606034214432327
 20
208.20728120999325
 11
72.535315913123156
 21
208.17194680332096
  0
LINE
  8
_0-0_0
  6
CONTINUOUS
 62
    7
 10
72.535315913123156
 20
208.17194680332096
 11
72.429263205141751
 21
208.35487906419505
  0
LINE
  8
_0-0_0
  6
CONTINUOUS
 62
    7
 10
73.030294534322536
 20
207.99515105004815
 11
73.136371986286179
 21
208.07203060294086
  0
LINE
  8
_0-0_0
  6
CONTINUOUS
 62
    7
 10
72.606034214432327
 20
208.20728120999325
 11
73.030294534322536
 21
207.99515105004815
  0
LINE
  8
_0-0_0
  6
CONTINUOUS
 62
    7
 10
72.499981506450894
 20
208.39023821484966
 11
72.499981506450894
 21
208.95313906736226
  0
LINE
  8
_0-0_0
  6
CONTINUOUS
 62
    7
 10
73.136371986286179
 20
208.63495619943586
 11
72.499981506450894
 21
208.95313906736226
  0
LINE
  8
_0-0_0
  6
CONTINUOUS
 62
    7
 10
73.136371986286179
 20
208.07203060294086
 11
73.136371986286179
 21
208.63495619943586
  0
LINE
  8
_0-0_0
  6
CONTINUOUS
 62
    7
 10
72.429263205141751
 20
208.91777991670776
 11
72.429263205141751
 21
209.00438385463005
  0
LINE
  8
_0-0_0
  6
CONTINUOUS
 62
    7
 10
72.429263205141751
 20
208.35487906419505
 11
72.429263205141751
 21
208.87447794774667
  0
LINE
  8
_0-0_0
  6
CONTINUOUS
 62
    7
 10
72.959600976995603
 20
207.95979189939357
 11
73.030294534322536
 21
207.99515105004815
  0
LINE
  8
_0-0_0
  6
CONTINUOUS
 62
    7
 10
72.959600976995603
 20
207.95979189939357
 11
72.535315913123156
 21
208.17194680332096
  0
LINE
  8
_0-0_0
  6
CONTINUOUS
 62
    7
 10
72.429263205141751
 20
209.00438385463005
 11
72.233018681809824
 21
209.10251848828716
  0
LINE
  8
_0-0_0
  6
CONTINUOUS
 62
    7
 10
73.348502146231283
 20
208.54476438408525
 11
73.348502146231283
 21
208.45816044616305
  0
LINE
  8
_0-0_0
  6
CONTINUOUS
 62
    7
 10
74.251855450707637
 20
208.99644103632346
 11
73.348502146231283
 21
208.54476438408525
  0
LINE
  8
_0-0_0
  6
CONTINUOUS
 62
    7
 10
73.348502146231283
 20
208.54476438408525
 11
73.134936835314903
 21
208.65155941153455
  0
LINE
  8
_0-0_0
  6
CONTINUOUS
 62
    7
 10
72.698650940044644
 20
167.79486500961315
 11
72.69031221802183
 21
167.75703146073226
  0
LINE
  8
_0-0_0
  6
CONTINUOUS
 62
    7
 10
153.56976077363313
 20
225.91793497899667
 11
153.56976077363313
 21
225.98865328030575
  0
LINE
  8
_0-0_0
  6
CONTINUOUS
 62
    7
 10
64.615732205880761
 20
189.92620441786906
 11
64.615732205880761
 21
189.85548611655994
  0
LINE
  8
_0-0_0
  6
CONTINUOUS
 62
    7
 10
146.83291467460433
 20
231.03496576710893
 11
155.10218033919472
 21
226.90034530680495
  0
LINE
  8
_0-0_0
  6
CONTINUOUS
 62
    7
 10
155.57288511379352
 20
227.71219536487075
 11
147.30359470522092
 21
231.84684056915705
  0
LINE
  8
_0-0_0
  6
CONTINUOUS
 62
    7
 10
154.90217473055873
 20
226.69887980321536
 11
146.63753619065173
 21
230.83119907316893
  0
LINE
  8
_0-0_0
  6
CONTINUOUS
 62
    7
 10
145.28406510481972
 20
230.15430269436831
 11
153.54855518083323
 21
226.02205765636145
  0
LINE
  8
_0-0_0
  6
CONTINUOUS
 62
    7
 10
72.910088268486334
 20
185.70282729318575
 11
64.645598192472818
 21
189.83507233119255
  0
LINE
  8
_0-0_0
  6
CONTINUOUS
 62
    7
 10
63.291978642747324
 20
189.15825018433867
 11
71.55646871876084
 21
185.02600514633187
  0
LINE
  8
_0-0_0
  6
CONTINUOUS
 62
    7
 10
153.53989478704102
 20
225.89752119362916
 11
73.150500800158625
 21
185.70282729318575
  0
LINE
  8
_0-0_0
  6
CONTINUOUS
 62
    7
 10
74.504145093866441
 20
185.02600514633187
 11
154.89351433676651
 21
225.22072379075755
  0
LINE
  8
_0-0_0
  6
CONTINUOUS
 62
    7
 10
63.083312640319122
 20
190.83789644436825
 11
143.47748221577834
 21
231.03496576710893
  0
LINE
  8
_0-0_0
  6
CONTINUOUS
 62
    7
 10
143.00680218516183
 20
231.84684056915705
 11
62.612607865720292
 21
191.64974650243417
  0
LINE
  8
_0-0_0
  6
CONTINUOUS
 62
    7
 10
143.67286069973102
 20
230.83119907316893
 11
63.283318248955112
 21
190.63643094077875
  0
LINE
  8
_0-0_0
  6
CONTINUOUS
 62
    7
 10
64.636937798680606
 20
189.95960879392476
 11
145.02633178556292
 21
230.15430269436831
  0
LINE
  8
_0-0_0
  6
CONTINUOUS
 62
    7
 10
143.10459040306722
 20
249.39705435716382
 11
143.14789237202834
 21
249.37540337268331
  0
LINE
  8
_0-0_0
  6
CONTINUOUS
 62
    7
 10
143.45100615475641
 20
249.52696026404726
 11
143.10459040306722
 21
249.70016813989173
  0
LINE
  8
_0-0_0
  6
CONTINUOUS
 62
    7
 10
143.03315452627243
 20
249.62982099831663
 11
142.99851295110352
 21
249.64714178590111
  0
LINE
  8
_0-0_0
  6
CONTINUOUS
 62
    7
 10
142.36212247126824
 20
249.29357502333778
 11
142.32748089609933
 21
249.27625423575341
  0
LINE
  8
_0-0_0
  6
CONTINUOUS
 62
    7
 10
72.428545629656071
 20
208.88279192578716
 11
72.393904054487166
 21
208.90011271337156
  0
LINE
  8
_0-0_0
  6
CONTINUOUS
 62
    7
 10
269.36652525051238
 20
56.598693481028903
 11
355.11155006047852
 21
56.598693481028903
  0
LINE
  8
_0-0_0
  6
CONTINUOUS
 62
    7
 10
255.87113258000983
 20
47.05318269925101
 11
302.28208393663988
 21
47.05318269925101
  0
LINE
  8
_0-0_0
  6
CONTINUOUS
 62
    7
 10
241.88202323140334
 20
166.04294157739187
 11
275.62046779168634
 21
166.04294157739187
  0
LINE
  8
_0-0_0
  6
CONTINUOUS
 62
    7
 10
242.21116768347264
 20
179.86747869996367
 11
274.9621541435655
 21
179.86747869996367
  0
LINE
  8
_0-0_0
  6
CONTINUOUS
 62
    7
 10
343.09738165623457
 20
167.35956887363346
 11
409.75138490264476
 21
167.35956887363346
  0
LINE
  8
_0-0_0
  6
CONTINUOUS
 62
    7
 10
335.85595627088821
 20
180.19663552402406
 11
402.83912871335008
 21
180.19663552402406
  0
LINE
  8
_0-0_0
  6
CONTINUOUS
 62
    7
 10
323.51261867059247
 20
191.38793042610385
 11
366.46742956058426
 21
191.38793042610385
  0
LINE
  8
_0-0_0
  6
CONTINUOUS
 62
    7
 10
343.09738165623457
 20
167.35956887363346
 11
340.91451702891186
 21
124.32148211133395
  0
LINE
  8
_0-0_0
  6
CONTINUOUS
 62
    7
 10
335.85595627088821
 20
180.19663552402406
 11
330.77861483032655
 21
124.55718091438516
  0
LINE
  8
_0-0_0
  6
CONTINUOUS
 62
    7
 10
323.51261867059247
 20
191.38793042610385
 11
315.99339259637384
 21
127.70263593972297
  0
LINE
  8
_0-0_0
  6
CONTINUOUS
 62
    7
 10
275.62046779168634
 20
166.04294157739187
 11
280.08589055087134
 21
125.06376446326607
  0
LINE
  8
_0-0_0
  6
CONTINUOUS
 62
    7
 10
274.9621541435655
 20
179.86747869996367
 11
299.87741425230718
 21
125.06376446326607
  0
LINE
  8
_0-0_0
  6
CONTINUOUS
 62
    7
 10
269.36652525051238
 20
56.598693481028903
 11
256.17672076096414
 21
122.27649095318367
  0
LINE
  8
_0-0_0
  6
CONTINUOUS
 62
    7
 10
255.87113258000983
 20
47.05318269925101
 11
243.14203629622602
 21
114.09191156789015
  0
LINE
  8
_0-0_0
  6
CONTINUOUS
 62
    7
 10
155.31965519930864
 20
209.06963373585896
 11
155.32368846841771
 21
209.00948111497627
  0
LINE
  8
_0-0_0
  6
CONTINUOUS
 62
    7
 10
155.32368846841771
 20
209.00948111497627
 11
155.35583090137803
 21
208.93806998216377
  0
LINE
  8
_0-0_0
  6
CONTINUOUS
 62
    7
 10
155.35583090137803
 20
208.93806998216377
 11
155.40408166679194
 21
208.88350950127287
  0
LINE
  8
_0-0_0
  6
CONTINUOUS
 62
    7
 10
155.40408166679194
 20
208.88350950127287
 11
155.46646124607813
 21
208.84216230691047
  0
LINE
  8
_0-0_0
  6
CONTINUOUS
 62
    7
 10
155.46646124607813
 20
208.84216230691047
 11
155.54618635693112
 21
208.81311287173307
  0
LINE
  8
_0-0_0
  6
CONTINUOUS
 62
    7
 10
155.54618635693112
 20
208.81311287173307
 11
155.64404880678342
 21
208.80027074493825
  0
LINE
  8
_0-0_0
  6
CONTINUOUS
 62
    7
 10
155.64404880678342
 20
208.80027074493825
 11
155.74666210123021
 21
208.80895588271275
  0
LINE
  8
_0-0_0
  6
CONTINUOUS
 62
    7
 10
155.74666210123021
 20
208.80895588271275
 11
155.84984450726913
 21
208.84466144911906
  0
LINE
  8
_0-0_0
  6
CONTINUOUS
 62
    7
 10
155.84984450726913
 20
208.84466144911906
 11
155.91781622654693
 21
208.89293695851515
  0
LINE
  8
_0-0_0
  6
CONTINUOUS
 62
    7
 10
155.91781622654693
 20
208.89293695851515
 11
155.96646289567704
 21
208.95610834523396
  0
LINE
  8
_0-0_0
  6
CONTINUOUS
 62
    7
 10
155.96646289567704
 20
208.95610834523396
 11
155.99274100484084
 21
209.03266622635726
  0
LINE
  8
_0-0_0
  6
CONTINUOUS
 62
    7
 10
155.99274100484084
 20
209.03266622635726
 11
155.99217189324884
 21
209.07027707939775
  0
LINE
  8
_0-0_0
  6
CONTINUOUS
 62
    7
 10
72.693281495893416
 20
167.75647472113135
 11
72.700679946590242
 21
167.68826793402187
  0
LINE
  8
_0-0_0
  6
CONTINUOUS
 62
    7
 10
72.700679946590242
 20
167.68826793402187
 11
72.734826642113887
 21
167.61887343576385
  0
LINE
  8
_0-0_0
  6
CONTINUOUS
 62
    7
 10
72.734826642113887
 20
167.61887343576385
 11
72.784537302481283
 21
167.56583470978205
  0
LINE
  8
_0-0_0
  6
CONTINUOUS
 62
    7
 10
72.784537302481283
 20
167.56583470978205
 11
72.848525240614748
 21
167.52578657448856
  0
LINE
  8
_0-0_0
  6
CONTINUOUS
 62
    7
 10
72.848525240614748
 20
167.52578657448856
 11
72.930328845977954
 21
167.49814754630026
  0
LINE
  8
_0-0_0
  6
CONTINUOUS
 62
    7
 10
72.930328845977954
 20
167.49814754630026
 11
73.029156311138394
 21
167.48740865799786
  0
LINE
  8
_0-0_0
  6
CONTINUOUS
 62
    7
 10
73.029156311138394
 20
167.48740865799786
 11
73.131942813461023
 21
167.49851870603416
  0
LINE
  8
_0-0_0
  6
CONTINUOUS
 62
    7
 10
73.131942813461023
 20
167.49851870603416
 11
73.223990427481283
 21
167.53171275824067
  0
LINE
  8
_0-0_0
  6
CONTINUOUS
 62
    7
 10
73.223990427481283
 20
167.53171275824067
 11
73.292160098617217
 21
167.58001301161906
  0
LINE
  8
_0-0_0
  6
CONTINUOUS
 62
    7
 10
73.292160098617217
 20
167.58001301161906
 11
73.340880999694093
 21
167.64312253838204
  0
LINE
  8
_0-0_0
  6
CONTINUOUS
 62
    7
 10
73.340880999694093
 20
167.64312253838204
 11
73.367258084787039
 21
167.71964330353205
  0
LINE
  8
_0-0_0
  6
CONTINUOUS
 62
    7
 10
73.367258084787039
 20
167.71964330353205
 11
73.366738461159457
 21
167.75732838851937
  0
LINE
  8
_0-0_0
  6
CONTINUOUS
 62
    7
 10
144.81877926233662
 20
214.32047998005237
 11
144.81939786189324
 21
214.27621299578286
  0
LINE
  8
_0-0_0
  6
CONTINUOUS
 62
    7
 10
144.81939786189324
 20
214.27621299578286
 11
144.84743279379774
 21
214.20109026563097
  0
LINE
  8
_0-0_0
  6
CONTINUOUS
 62
    7
 10
144.84743279379774
 20
214.20109026563097
 11
144.89281325726904
 21
214.14353576288596
  0
LINE
  8
_0-0_0
  6
CONTINUOUS
 62
    7
 10
144.89281325726904
 20
214.14353576288596
 11
144.95224830266602
 21
214.09973891427956
  0
LINE
  8
_0-0_0
  6
CONTINUOUS
 62
    7
 10
144.95224830266602
 20
214.09973891427956
 11
145.02813809626824
 21
214.06809136096456
  0
LINE
  8
_0-0_0
  6
CONTINUOUS
 62
    7
 10
145.02813809626824
 20
214.06809136096456
 11
145.12308075621334
 21
214.05148814886576
  0
LINE
  8
_0-0_0
  6
CONTINUOUS
 62
    7
 10
145.12308075621334
 20
214.05148814886576
 11
145.22532289092612
 21
214.05559564992146
  0
LINE
  8
_0-0_0
  6
CONTINUOUS
 62
    7
 10
145.22532289092612
 20
214.05559564992146
 11
145.32860427289413
 21
214.08496675686825
  0
LINE
  8
_0-0_0
  6
CONTINUOUS
 62
    7
 10
145.32860427289413
 20
214.08496675686825
 11
145.40263826782652
 21
214.13019875644596
  0
LINE
  8
_0-0_0
  6
CONTINUOUS
 62
    7
 10
145.40263826782652
 20
214.13019875644596
 11
145.45653066119644
 21
214.19054932918667
  0
LINE
  8
_0-0_0
  6
CONTINUOUS
 62
    7
 10
145.45653066119644
 20
214.19054932918667
 11
145.47402465665672
 21
214.22264227418236
  0
LINE
  8
_0-0_0
  6
CONTINUOUS
 62
    7
 10
145.47402465665672
 20
214.22264227418236
 11
145.49441369804194
 21
214.30120441786906
  0
LINE
  8
_0-0_0
  6
CONTINUOUS
 62
    7
 10
145.49441369804194
 20
214.30120441786906
 11
145.49223622760263
 21
214.32134601943156
  0
LINE
  8
_0-0_0
  6
CONTINUOUS
 62
    7
 10
62.193345830247324
 20
173.00753128917395
 11
62.194013917768444
 21
172.96319007295776
  0
LINE
  8
_0-0_0
  6
CONTINUOUS
 62
    7
 10
62.194013917768444
 20
172.96319007295776
 11
62.222123081619827
 21
172.88814157475255
  0
LINE
  8
_0-0_0
  6
CONTINUOUS
 62
    7
 10
62.222123081619827
 20
172.88814157475255
 11
62.267553033055606
 21
172.83062418798096
  0
LINE
  8
_0-0_0
  6
CONTINUOUS
 62
    7
 10
62.267553033055606
 20
172.83062418798096
 11
62.32703756641709
 21
172.78687682733906
  0
LINE
  8
_0-0_0
  6
CONTINUOUS
 62
    7
 10
62.32703756641709
 20
172.78687682733906
 11
62.403001591966074
 21
172.75527876198856
  0
LINE
  8
_0-0_0
  6
CONTINUOUS
 62
    7
 10
62.403001591966074
 20
172.75527876198856
 11
62.498018483857976
 21
172.73872503785427
  0
LINE
  8
_0-0_0
  6
CONTINUOUS
 62
    7
 10
62.498018483857976
 20
172.73872503785427
 11
62.583063550897663
 21
172.74065506847077
  0
LINE
  8
_0-0_0
  6
CONTINUOUS
 62
    7
 10
72.998721212954251
 20
184.88152503389526
 11
73.047293650137533
 21
184.88372724831666
  0
LINE
  8
_0-0_0
  6
CONTINUOUS
 62
    7
 10
73.047293650137533
 20
184.88372724831666
 11
73.165569885357144
 21
184.87402760726945
  0
LINE
  8
_0-0_0
  6
CONTINUOUS
 62
    7
 10
73.165569885357144
 20
184.87402760726945
 11
73.274072247582637
 21
184.85010017642057
  0
LINE
  8
_0-0_0
  6
CONTINUOUS
 62
    7
 10
73.274072247582637
 20
184.85010017642057
 11
73.364536246738027
 21
184.81439461001426
  0
LINE
  8
_0-0_0
  6
CONTINUOUS
 62
    7
 10
73.364536246738027
 20
184.81439461001426
 11
73.430330495576698
 21
184.77131533689357
  0
LINE
  8
_0-0_0
  6
CONTINUOUS
 62
    7
 10
73.430330495576698
 20
184.77131533689357
 11
73.467990836581805
 21
184.72714732855317
  0
LINE
  8
_0-0_0
  6
CONTINUOUS
 62
    7
 10
73.467990836581805
 20
184.72714732855317
 11
73.480239107802277
 21
184.68686412542817
  0
LINE
  8
_0-0_0
  6
CONTINUOUS
 62
    7
 10
73.480239107802277
 20
184.68686412542817
 11
73.478185357274356
 21
184.67882233119255
  0
LINE
  8
_0-0_0
  6
CONTINUOUS
 62
    7
 10
72.582948078980394
 20
184.68263290446106
 11
72.582156271548001
 21
184.70062177956666
  0
LINE
  8
_0-0_0
  6
CONTINUOUS
 62
    7
 10
72.582156271548001
 20
184.70062177956666
 11
72.602495824968571
 21
184.74214218180495
  0
LINE
  8
_0-0_0
  6
CONTINUOUS
 62
    7
 10
72.602495824968571
 20
184.74214218180495
 11
72.647208200918783
 21
184.78472657528044
  0
LINE
  8
_0-0_0
  6
CONTINUOUS
 62
    7
 10
72.647208200918783
 20
184.78472657528044
 11
72.721242195851204
 21
184.82627172150086
  0
LINE
  8
_0-0_0
  6
CONTINUOUS
 62
    7
 10
72.721242195851204
 20
184.82627172150086
 11
72.816852943317429
 21
184.85848838640786
  0
LINE
  8
_0-0_0
  6
CONTINUOUS
 62
    7
 10
72.816852943317429
 20
184.85848838640786
 11
72.928151375538732
 21
184.87833306018325
  0
LINE
  8
_0-0_0
  6
CONTINUOUS
 62
    7
 10
72.928151375538732
 20
184.87833306018325
 11
72.998721212954251
 21
184.88152503389526
  0
LINE
  8
_0-0_0
  6
CONTINUOUS
 62
    7
 10
144.70730762223954
 20
231.2519210035955
 11
144.71661135957063
 21
231.2885173533632
  0
LINE
  8
_0-0_0
  6
CONTINUOUS
 62
    7
 10
144.71661135957063
 20
231.2885173533632
 11
144.75142614261532
 21
231.33100277090966
  0
LINE
  8
_0-0_0
  6
CONTINUOUS
 62
    7
 10
144.75142614261532
 20
231.33100277090966
 11
144.81662653587972
 21
231.37514603526768
  0
LINE
  8
_0-0_0
  6
CONTINUOUS
 62
    7
 10
144.81662653587972
 20
231.37514603526768
 11
144.90511101645401
 21
231.41114852946112
  0
LINE
  8
_0-0_0
  6
CONTINUOUS
 62
    7
 10
144.90511101645401
 20
231.41114852946112
 11
145.01155962815173
 21
231.43574404783101
  0
LINE
  8
_0-0_0
  6
CONTINUOUS
 62
    7
 10
145.01155962815173
 20
231.43574404783101
 11
145.12884610408074
 21
231.4465076801157
  0
LINE
  8
_0-0_0
  6
CONTINUOUS
 62
    7
 10
145.12884610408074
 20
231.4465076801157
 11
145.17071292207063
 21
231.44502304117998
  0
LINE
  8
_0-0_0
  6
CONTINUOUS
 62
    7
 10
155.20617929664832
 20
225.99511145967656
 11
155.21714088079102
 21
226.03826496474406
  0
LINE
  8
_0-0_0
  6
CONTINUOUS
 62
    7
 10
155.21714088079102
 20
226.03826496474406
 11
155.25198040781802
 21
226.08072563830825
  0
LINE
  8
_0-0_0
  6
CONTINUOUS
 62
    7
 10
155.25198040781802
 20
226.08072563830825
 11
155.31715605710014
 21
226.12486890266635
  0
LINE
  8
_0-0_0
  6
CONTINUOUS
 62
    7
 10
155.31715605710014
 20
226.12486890266635
 11
155.40564053767443
 21
226.16087139685985
  0
LINE
  8
_0-0_0
  6
CONTINUOUS
 62
    7
 10
155.40564053767443
 20
226.16087139685985
 11
155.51208914937212
 21
226.18546691522965
  0
LINE
  8
_0-0_0
  6
CONTINUOUS
 62
    7
 10
155.51208914937212
 20
226.18546691522965
 11
155.57352845733243
 21
226.19110854318575
  0
LINE
  8
_0-0_0
  6
CONTINUOUS
 62
    7
 10
156.65402393083312
 20
225.99229064569846
 11
156.67894112097264
 21
226.00441519700755
  0
LINE
  8
_0-0_0
  6
CONTINUOUS
 62
    7
 10
156.67894112097264
 20
226.00441519700755
 11
156.70474909447341
 21
226.02294843972297
  0
LINE
  8
_0-0_0
  6
CONTINUOUS
 62
    7
 10
62.541419428748185
 20
190.13375694109536
 11
62.54676412891709
 21
190.13400438091807
  0
LINE
  8
_0-0_0
  6
CONTINUOUS
 62
    7
 10
62.54676412891709
 20
190.13400438091807
 11
62.665040364136672
 21
190.12430473987067
  0
LINE
  8
_0-0_0
  6
CONTINUOUS
 62
    7
 10
62.665040364136672
 20
190.12430473987067
 11
62.773542726362194
 21
190.10035256503966
  0
LINE
  8
_0-0_0
  6
CONTINUOUS
 62
    7
 10
62.773542726362194
 20
190.10035256503966
 11
62.864006725517612
 21
190.06467174261576
  0
LINE
  8
_0-0_0
  6
CONTINUOUS
 62
    7
 10
62.864006725517612
 20
190.06467174261576
 11
62.929776230374017
 21
190.02156772551265
  0
LINE
  8
_0-0_0
  6
CONTINUOUS
 62
    7
 10
62.929776230374017
 20
190.02156772551265
 11
62.967461315361362
 21
189.97739971717226
  0
LINE
  8
_0-0_0
  6
CONTINUOUS
 62
    7
 10
62.967461315361362
 20
189.97739971717226
 11
62.979709586581777
 21
189.93711651404726
  0
LINE
  8
_0-0_0
  6
CONTINUOUS
 62
    7
 10
62.979709586581777
 20
189.93711651404726
 11
62.979338426847846
 21
189.93563187511145
  0
LINE
  8
_0-0_0
  6
CONTINUOUS
 62
    7
 10
62.082542277671308
 20
189.93038615087156
 11
62.081626750327558
 21
189.95089891216807
  0
LINE
  8
_0-0_0
  6
CONTINUOUS
 62
    7
 10
62.081626750327558
 20
189.95089891216807
 11
62.101966303748185
 21
189.99239457042395
  0
LINE
  8
_0-0_0
  6
CONTINUOUS
 62
    7
 10
62.101966303748185
 20
189.99239457042395
 11
62.14667867969834
 21
190.03497896389945
  0
LINE
  8
_0-0_0
  6
CONTINUOUS
 62
    7
 10
62.14667867969834
 20
190.03497896389945
 11
62.220712674630789
 21
190.07654885410216
  0
LINE
  8
_0-0_0
  6
CONTINUOUS
 62
    7
 10
62.220712674630789
 20
190.07654885410216
 11
62.316323422097014
 21
190.10876551900927
  0
LINE
  8
_0-0_0
  6
CONTINUOUS
 62
    7
 10
62.316323422097014
 20
190.10876551900927
 11
62.427621854318289
 21
190.12858544880226
  0
LINE
  8
_0-0_0
  6
CONTINUOUS
 62
    7
 10
62.427621854318289
 20
190.12858544880226
 11
62.541419428748185
 21
190.13375694109536
  0
LINE
  8
_0-0_0
  6
CONTINUOUS
 62
    7
 10
61.480768629022663
 20
189.96049957728636
 11
61.506551858541258
 21
189.94196633457096
  0
LINE
  8
_0-0_0
  6
CONTINUOUS
 62
    7
 10
61.506551858541258
 20
189.94196633457096
 11
61.531469048680606
 21
189.92981703927956
  0
LINE
  8
_0-0_0
  6
CONTINUOUS
 62
    7
 10
155.62489696451144
 20
208.96521413070687
 11
155.57496360830373
 21
208.95410408267057
  0
LINE
  8
_0-0_0
  6
CONTINUOUS
 62
    7
 10
155.57496360830373
 20
208.95410408267057
 11
155.53735275526313
 21
208.93430889685976
  0
LINE
  8
_0-0_0
  6
CONTINUOUS
 62
    7
 10
155.53735275526313
 20
208.93430889685976
 11
155.51775552131042
 21
208.90879785114615
  0
LINE
  8
_0-0_0
  6
CONTINUOUS
 62
    7
 10
155.51775552131042
 20
208.90879785114615
 11
155.51916592829943
 21
208.88150523870945
  0
LINE
  8
_0-0_0
  6
CONTINUOUS
 62
    7
 10
155.51916592829943
 20
208.88150523870945
 11
155.54138602437212
 21
208.85653856060557
  0
LINE
  8
_0-0_0
  6
CONTINUOUS
 62
    7
 10
155.54138602437212
 20
208.85653856060557
 11
155.58097639599362
 21
208.83773313408525
  0
LINE
  8
_0-0_0
  6
CONTINUOUS
 62
    7
 10
155.58097639599362
 20
208.83773313408525
 11
155.63197374343883
 21
208.82793451710896
  0
LINE
  8
_0-0_0
  6
CONTINUOUS
 62
    7
 10
155.63197374343883
 20
208.82793451710896
 11
155.68658371229444
 21
208.82865209259455
  0
LINE
  8
_0-0_0
  6
CONTINUOUS
 62
    7
 10
155.68658371229444
 20
208.82865209259455
 11
155.73649232451993
 21
208.83976214063097
  0
LINE
  8
_0-0_0
  6
CONTINUOUS
 62
    7
 10
155.73649232451993
 20
208.83976214063097
 11
155.77410317756042
 21
208.85955732644175
  0
LINE
  8
_0-0_0
  6
CONTINUOUS
 62
    7
 10
155.77410317756042
 20
208.85955732644175
 11
155.79370041151313
 21
208.88504362817315
  0
LINE
  8
_0-0_0
  6
CONTINUOUS
 62
    7
 10
155.79370041151313
 20
208.88504362817315
 11
155.79229000452412
 21
208.91236098459206
  0
LINE
  8
_0-0_0
  6
CONTINUOUS
 62
    7
 10
155.79229000452412
 20
208.91236098459206
 11
155.77009465243364
 21
208.93730291871367
  0
LINE
  8
_0-0_0
  6
CONTINUOUS
 62
    7
 10
155.77009465243364
 20
208.93730291871367
 11
155.73047953682993
 21
208.95610834523396
  0
LINE
  8
_0-0_0
  6
CONTINUOUS
 62
    7
 10
155.73047953682993
 20
208.95610834523396
 11
155.67948218938471
 21
208.96590696221025
  0
LINE
  8
_0-0_0
  6
CONTINUOUS
 62
    7
 10
155.67948218938471
 20
208.96590696221025
 11
155.62489696451144
 21
208.96521413070687
  0
LINE
  8
_0-0_0
  6
CONTINUOUS
 62
    7
 10
155.31574565011113
 20
209.12642117515375
 11
155.32193164567704
 21
209.15873681598976
  0
LINE
  8
_0-0_0
  6
CONTINUOUS
 62
    7
 10
155.32193164567704
 20
209.15873681598976
 11
155.36100239367101
 21
209.21116931440616
  0
LINE
  8
_0-0_0
  6
CONTINUOUS
 62
    7
 10
155.36100239367101
 20
209.21116931440616
 11
155.43199287878514
 21
209.25444653938516
  0
LINE
  8
_0-0_0
  6
CONTINUOUS
 62
    7
 10
155.43199287878514
 20
209.25444653938516
 11
155.52725721049964
 21
209.28381764633187
  0
LINE
  8
_0-0_0
  6
CONTINUOUS
 62
    7
 10
155.52725721049964
 20
209.28381764633187
 11
155.63642766024623
 21
209.29614014949917
  0
LINE
  8
_0-0_0
  6
CONTINUOUS
 62
    7
 10
155.63642766024623
 20
209.29614014949917
 11
155.74770134848524
 21
209.29010261782685
  0
LINE
  8
_0-0_0
  6
CONTINUOUS
 62
    7
 10
155.74770134848524
 20
209.29010261782685
 11
155.84900321187212
 21
209.26629890688935
  0
LINE
  8
_0-0_0
  6
CONTINUOUS
 62
    7
 10
155.84900321187212
 20
209.26629890688935
 11
155.92934692228172
 21
209.22735187880656
  0
LINE
  8
_0-0_0
  6
CONTINUOUS
 62
    7
 10
155.92934692228172
 20
209.22735187880656
 11
155.98004734193964
 21
209.17744326658107
  0
LINE
  8
_0-0_0
  6
CONTINUOUS
 62
    7
 10
155.98004734193964
 20
209.17744326658107
 11
155.99573502669472
 21
209.12642117515375
  0
LINE
  8
_0-0_0
  6
CONTINUOUS
 62
    7
 10
155.46124026582063
 20
210.32586097139526
 11
155.46406107979863
 21
210.34236520756505
  0
LINE
  8
_0-0_0
  6
CONTINUOUS
 62
    7
 10
155.46406107979863
 20
210.34236520756505
 11
155.49127946028852
 21
210.37779859016635
  0
LINE
  8
_0-0_0
  6
CONTINUOUS
 62
    7
 10
155.49127946028852
 20
210.37779859016635
 11
155.54353875082901
 21
210.40531389844335
  0
LINE
  8
_0-0_0
  6
CONTINUOUS
 62
    7
 10
155.54353875082901
 20
210.40531389844335
 11
155.61287138913141
 21
210.42072939939357
  0
LINE
  8
_0-0_0
  6
CONTINUOUS
 62
    7
 10
155.61287138913141
 20
210.42072939939357
 11
155.68873643875133
 21
210.42171915868417
  0
LINE
  8
_0-0_0
  6
CONTINUOUS
 62
    7
 10
155.68873643875133
 20
210.42171915868417
 11
155.75957845997172
 21
210.40810996843916
  0
LINE
  8
_0-0_0
  6
CONTINUOUS
 62
    7
 10
155.75957845997172
 20
210.40810996843916
 11
155.81460907652584
 21
210.38198032316896
  0
LINE
  8
_0-0_0
  6
CONTINUOUS
 62
    7
 10
155.81460907652584
 20
210.38198032316896
 11
155.84546482240842
 21
210.34728926003547
  0
LINE
  8
_0-0_0
  6
CONTINUOUS
 62
    7
 10
155.84546482240842
 20
210.34728926003547
 11
155.85024041098512
 21
210.32586097139526
  0
LINE
  8
_0-0_0
  6
CONTINUOUS
 62
    7
 10
72.893732496210134
 20
167.59962261756297
 11
72.915952592282821
 21
167.62458929566677
  0
LINE
  8
_0-0_0
  6
CONTINUOUS
 62
    7
 10
72.915952592282821
 20
167.62458929566677
 11
72.955542963904406
 21
167.64339472218705
  0
LINE
  8
_0-0_0
  6
CONTINUOUS
 62
    7
 10
72.955542963904406
 20
167.64339472218705
 11
73.006540311349539
 21
167.65319333916335
  0
LINE
  8
_0-0_0
  6
CONTINUOUS
 62
    7
 10
73.006540311349539
 20
167.65319333916335
 11
73.061150280205084
 21
167.65248813566896
  0
LINE
  8
_0-0_0
  6
CONTINUOUS
 62
    7
 10
73.061150280205084
 20
167.65248813566896
 11
73.111058892430606
 21
167.64137808763255
  0
LINE
  8
_0-0_0
  6
CONTINUOUS
 62
    7
 10
73.111058892430606
 20
167.64137808763255
 11
73.148669745471153
 21
167.62158290182177
  0
LINE
  8
_0-0_0
  6
CONTINUOUS
 62
    7
 10
73.148669745471153
 20
167.62158290182177
 11
73.168266979423834
 21
167.59608422809916
  0
LINE
  8
_0-0_0
  6
CONTINUOUS
 62
    7
 10
73.168266979423834
 20
167.59608422809916
 11
73.166856572434824
 21
167.56877924367137
  0
LINE
  8
_0-0_0
  6
CONTINUOUS
 62
    7
 10
73.166856572434824
 20
167.56877924367137
 11
73.14466122034446
 21
167.54382493755867
  0
LINE
  8
_0-0_0
  6
CONTINUOUS
 62
    7
 10
73.14466122034446
 20
167.54382493755867
 11
73.10504610474058
 21
167.52501951103835
  0
LINE
  8
_0-0_0
  6
CONTINUOUS
 62
    7
 10
73.10504610474058
 20
167.52501951103835
 11
73.054048757295448
 21
167.51522089406205
  0
LINE
  8
_0-0_0
  6
CONTINUOUS
 62
    7
 10
73.054048757295448
 20
167.51522089406205
 11
72.999463532422169
 21
167.51592609755656
  0
LINE
  8
_0-0_0
  6
CONTINUOUS
 62
    7
 10
72.999463532422169
 20
167.51592609755656
 11
72.949530176214381
 21
167.52702377360177
  0
LINE
  8
_0-0_0
  6
CONTINUOUS
 62
    7
 10
72.949530176214381
 20
167.52702377360177
 11
72.911919323173834
 21
167.54683133140367
  0
LINE
  8
_0-0_0
  6
CONTINUOUS
 62
    7
 10
72.911919323173834
 20
167.54683133140367
 11
72.892322089221153
 21
167.57233000512625
  0
LINE
  8
_0-0_0
  6
CONTINUOUS
 62
    7
 10
72.892322089221153
 20
167.57233000512625
 11
72.893732496210134
 21
167.59962261756297
  0
LINE
  8
_0-0_0
  6
CONTINUOUS
 62
    7
 10
73.370301594605422
 20
167.81369518011576
 11
73.36829733204209
 21
167.83211707491085
  0
LINE
  8
_0-0_0
  6
CONTINUOUS
 62
    7
 10
73.36829733204209
 20
167.83211707491085
 11
73.338035441733808
 21
167.88598472429857
  0
LINE
  8
_0-0_0
  6
CONTINUOUS
 62
    7
 10
73.338035441733808
 20
167.88598472429857
 11
73.27441866333433
 21
167.93203327529096
  0
LINE
  8
_0-0_0
  6
CONTINUOUS
 62
    7
 10
73.27441866333433
 20
167.93203327529096
 11
73.184350567895137
 21
167.96525207147965
  0
LINE
  8
_0-0_0
  6
CONTINUOUS
 62
    7
 10
73.184350567895137
 20
167.96525207147965
 11
73.07758028442808
 21
167.98205323543667
  0
LINE
  8
_0-0_0
  6
CONTINUOUS
 62
    7
 10
73.07758028442808
 20
167.98205323543667
 11
72.965687996632454
 21
167.98060571247427
  0
LINE
  8
_0-0_0
  6
CONTINUOUS
 62
    7
 10
72.965687996632454
 20
167.98060571247427
 11
72.860798255817429
 21
167.96107033847716
  0
LINE
  8
_0-0_0
  6
CONTINUOUS
 62
    7
 10
72.860798255817429
 20
167.96107033847716
 11
72.774293293824172
 21
167.92556272392895
  0
LINE
  8
_0-0_0
  6
CONTINUOUS
 62
    7
 10
72.774293293824172
 20
167.92556272392895
 11
72.715501591966074
 21
167.87794293006297
  0
LINE
  8
_0-0_0
  6
CONTINUOUS
 62
    7
 10
72.715501591966074
 20
167.87794293006297
 11
72.690856585631622
 21
167.82335770518955
  0
LINE
  8
_0-0_0
  6
CONTINUOUS
 62
    7
 10
72.690856585631622
 20
167.82335770518955
 11
72.69031221802183
 21
167.81369518011576
  0
LINE
  8
_0-0_0
  6
CONTINUOUS
 62
    7
 10
73.224806978895998
 20
169.01314734834835
 11
73.221986164917894
 21
169.02965158451815
  0
LINE
  8
_0-0_0
  6
CONTINUOUS
 62
    7
 10
73.221986164917894
 20
169.02965158451815
 11
73.19476778442808
 21
169.06507259512836
  0
LINE
  8
_0-0_0
  6
CONTINUOUS
 62
    7
 10
73.19476778442808
 20
169.06507259512836
 11
73.142508493887533
 21
169.09258790340536
  0
LINE
  8
_0-0_0
  6
CONTINUOUS
 62
    7
 10
73.142508493887533
 20
169.09258790340536
 11
73.073151111602954
 21
169.10800340435557
  0
LINE
  8
_0-0_0
  6
CONTINUOUS
 62
    7
 10
73.073151111602954
 20
169.10800340435557
 11
72.997286061982948
 21
169.10898079165497
  0
LINE
  8
_0-0_0
  6
CONTINUOUS
 62
    7
 10
72.997286061982948
 20
169.10898079165497
 11
72.926444040762533
 21
169.09537160140997
  0
LINE
  8
_0-0_0
  6
CONTINUOUS
 62
    7
 10
72.926444040762533
 20
169.09537160140997
 11
72.871413424208498
 21
169.06924195613976
  0
LINE
  8
_0-0_0
  6
CONTINUOUS
 62
    7
 10
72.871413424208498
 20
169.06924195613976
 11
72.840582422308103
 21
169.03457563698856
  0
LINE
  8
_0-0_0
  6
CONTINUOUS
 62
    7
 10
72.840582422308103
 20
169.03457563698856
 11
72.835806833731283
 21
169.01314734834835
  0
LINE
  8
_0-0_0
  6
CONTINUOUS
 62
    7
 10
145.29176048330373
 20
214.13178237131086
 11
145.26956513121334
 21
214.10681569320695
  0
LINE
  8
_0-0_0
  6
CONTINUOUS
 62
    7
 10
145.26956513121334
 20
214.10681569320695
 11
145.22995001560943
 21
214.08801026668667
  0
LINE
  8
_0-0_0
  6
CONTINUOUS
 62
    7
 10
145.22995001560943
 20
214.08801026668667
 11
145.17895266816433
 21
214.07821164971025
  0
LINE
  8
_0-0_0
  6
CONTINUOUS
 62
    7
 10
145.17895266816433
 20
214.07821164971025
 11
145.12434269930873
 21
214.07892922519596
  0
LINE
  8
_0-0_0
  6
CONTINUOUS
 62
    7
 10
145.12434269930873
 20
214.07892922519596
 11
145.07443408708312
 21
214.09001452924997
  0
LINE
  8
_0-0_0
  6
CONTINUOUS
 62
    7
 10
145.07443408708312
 20
214.09001452924997
 11
145.03682323404271
 21
214.10983445904307
  0
LINE
  8
_0-0_0
  6
CONTINUOUS
 62
    7
 10
145.03682323404271
 20
214.10983445904307
 11
145.01722600009003
 21
214.13532076077445
  0
LINE
  8
_0-0_0
  6
CONTINUOUS
 62
    7
 10
145.01722600009003
 20
214.13532076077445
 11
145.01863640707901
 21
214.16261337321106
  0
LINE
  8
_0-0_0
  6
CONTINUOUS
 62
    7
 10
145.01863640707901
 20
214.16261337321106
 11
145.04083175916944
 21
214.18758005131505
  0
LINE
  8
_0-0_0
  6
CONTINUOUS
 62
    7
 10
145.04083175916944
 20
214.18758005131505
 11
145.08044687477332
 21
214.20638547783525
  0
LINE
  8
_0-0_0
  6
CONTINUOUS
 62
    7
 10
145.08044687477332
 20
214.20638547783525
 11
145.13144422221833
 21
214.21618409481167
  0
LINE
  8
_0-0_0
  6
CONTINUOUS
 62
    7
 10
145.13144422221833
 20
214.21618409481167
 11
145.18605419107394
 21
214.21546651932596
  0
LINE
  8
_0-0_0
  6
CONTINUOUS
 62
    7
 10
145.18605419107394
 20
214.21546651932596
 11
145.23596280329943
 21
214.20438121527195
  0
LINE
  8
_0-0_0
  6
CONTINUOUS
 62
    7
 10
145.23596280329943
 20
214.20438121527195
 11
145.27357365634003
 21
214.18456128547885
  0
LINE
  8
_0-0_0
  6
CONTINUOUS
 62
    7
 10
145.27357365634003
 20
214.18456128547885
 11
145.29317089029271
 21
214.15907498374744
  0
LINE
  8
_0-0_0
  6
CONTINUOUS
 62
    7
 10
145.29317089029271
 20
214.15907498374744
 11
145.29176048330373
 21
214.13178237131086
  0
LINE
  8
_0-0_0
  6
CONTINUOUS
 62
    7
 10
145.49520550547433
 20
214.37669830775505
 11
145.48253658655534
 21
214.42267262680065
  0
LINE
  8
_0-0_0
  6
CONTINUOUS
 62
    7
 10
145.48253658655534
 20
214.42267262680065
 11
145.43492916468043
 21
214.47332355849406
  0
LINE
  8
_0-0_0
  6
CONTINUOUS
 62
    7
 10
145.43492916468043
 20
214.47332355849406
 11
145.35703510851482
 21
214.51350778569005
  0
LINE
  8
_0-0_0
  6
CONTINUOUS
 62
    7
 10
145.35703510851482
 20
214.51350778569005
 11
145.25724262804613
 21
214.53884562352786
  0
LINE
  8
_0-0_0
  6
CONTINUOUS
 62
    7
 10
145.25724262804613
 20
214.53884562352786
 11
145.14641433148782
 21
214.54663997794086
  0
LINE
  8
_0-0_0
  6
CONTINUOUS
 62
    7
 10
145.14641433148782
 20
214.54663997794086
 11
145.03652630625552
 21
214.53600006556755
  0
LINE
  8
_0-0_0
  6
CONTINUOUS
 62
    7
 10
145.03652630625552
 20
214.53600006556755
 11
144.93950515180032
 21
214.50811359755656
  0
LINE
  8
_0-0_0
  6
CONTINUOUS
 62
    7
 10
144.93950515180032
 20
214.50811359755656
 11
144.86584231660183
 21
214.46597459576185
  0
LINE
  8
_0-0_0
  6
CONTINUOUS
 62
    7
 10
144.86584231660183
 20
214.46597459576185
 11
144.82355485091344
 21
214.41416069690194
  0
LINE
  8
_0-0_0
  6
CONTINUOUS
 62
    7
 10
145.34971088976482
 20
215.57613810399667
 11
145.34686533180454
 21
215.59264234016635
  0
LINE
  8
_0-0_0
  6
CONTINUOUS
 62
    7
 10
145.34686533180454
 20
215.59264234016635
 11
145.31964695131464
 21
215.62807572276776
  0
LINE
  8
_0-0_0
  6
CONTINUOUS
 62
    7
 10
145.31964695131464
 20
215.62807572276776
 11
145.26738766077412
 21
215.65556628706256
  0
LINE
  8
_0-0_0
  6
CONTINUOUS
 62
    7
 10
145.26738766077412
 20
215.65556628706256
 11
145.19805502247172
 21
215.67100653199495
  0
LINE
  8
_0-0_0
  6
CONTINUOUS
 62
    7
 10
145.19805502247172
 20
215.67100653199495
 11
145.12218997285183
 21
215.67197154730317
  0
LINE
  8
_0-0_0
  6
CONTINUOUS
 62
    7
 10
145.12218997285183
 20
215.67197154730317
 11
145.05134795163141
 21
215.65836235705825
  0
LINE
  8
_0-0_0
  6
CONTINUOUS
 62
    7
 10
145.05134795163141
 20
215.65836235705825
 11
144.99631733507732
 21
215.63223271178796
  0
LINE
  8
_0-0_0
  6
CONTINUOUS
 62
    7
 10
144.99631733507732
 20
215.63223271178796
 11
144.96548633317704
 21
215.59756639263685
  0
LINE
  8
_0-0_0
  6
CONTINUOUS
 62
    7
 10
62.560620758984669
 20
172.76619085816677
 11
62.610529371210163
 21
172.77728853421195
  0
LINE
  8
_0-0_0
  6
CONTINUOUS
 62
    7
 10
62.610529371210163
 20
172.77728853421195
 11
62.64814022425071
 21
172.79709609201385
  0
LINE
  8
_0-0_0
  6
CONTINUOUS
 62
    7
 10
62.64814022425071
 20
172.79709609201385
 11
62.667737458203419
 21
172.82259476573645
  0
LINE
  8
_0-0_0
  6
CONTINUOUS
 62
    7
 10
62.667737458203419
 20
172.82259476573645
 11
62.666327051214381
 21
172.84989975016416
  0
LINE
  8
_0-0_0
  6
CONTINUOUS
 62
    7
 10
62.666327051214381
 20
172.84989975016416
 11
62.644131699124017
 21
172.87485405627694
  0
LINE
  8
_0-0_0
  6
CONTINUOUS
 62
    7
 10
62.644131699124017
 20
172.87485405627694
 11
62.604516583520137
 21
172.89365948279715
  0
LINE
  8
_0-0_0
  6
CONTINUOUS
 62
    7
 10
62.604516583520137
 20
172.89365948279715
 11
62.553519236075033
 21
172.90345809977367
  0
LINE
  8
_0-0_0
  6
CONTINUOUS
 62
    7
 10
62.553519236075033
 20
172.90345809977367
 11
62.49890926721946
 21
172.90275289627905
  0
LINE
  8
_0-0_0
  6
CONTINUOUS
 62
    7
 10
62.49890926721946
 20
172.90275289627905
 11
62.449000654993966
 21
172.89165522023396
  0
LINE
  8
_0-0_0
  6
CONTINUOUS
 62
    7
 10
62.449000654993966
 20
172.89165522023396
 11
62.411389801953419
 21
172.87184766243195
  0
LINE
  8
_0-0_0
  6
CONTINUOUS
 62
    7
 10
62.411389801953419
 20
172.87184766243195
 11
62.39179256800071
 21
172.84634898870937
  0
LINE
  8
_0-0_0
  6
CONTINUOUS
 62
    7
 10
62.39179256800071
 20
172.84634898870937
 11
62.39320297498972
 21
172.81904400428155
  0
LINE
  8
_0-0_0
  6
CONTINUOUS
 62
    7
 10
62.39320297498972
 20
172.81904400428155
 11
62.415398327080112
 21
172.79408969816885
  0
LINE
  8
_0-0_0
  6
CONTINUOUS
 62
    7
 10
62.415398327080112
 20
172.79408969816885
 11
62.455013442683992
 21
172.77528427164867
  0
LINE
  8
_0-0_0
  6
CONTINUOUS
 62
    7
 10
62.455013442683992
 20
172.77528427164867
 11
62.506010790129096
 21
172.76548565467215
  0
LINE
  8
_0-0_0
  6
CONTINUOUS
 62
    7
 10
62.506010790129096
 20
172.76548565467215
 11
62.560620758984669
 21
172.76619085816677
  0
LINE
  8
_0-0_0
  6
CONTINUOUS
 62
    7
 10
62.454840234808131
 20
173.22979410985596
 11
62.566584058710163
 21
173.23297371157685
  0
LINE
  8
_0-0_0
  6
CONTINUOUS
 62
    7
 10
62.566584058710163
 20
173.23297371157685
 11
62.674344101467767
 21
173.21783039443156
  0
LINE
  8
_0-0_0
  6
CONTINUOUS
 62
    7
 10
62.674344101467767
 20
173.21783039443156
 11
62.766441203452558
 21
173.18602200523165
  0
LINE
  8
_0-0_0
  6
CONTINUOUS
 62
    7
 10
62.766441203452558
 20
173.18602200523165
 11
62.832878795830112
 21
173.14098795751227
  0
LINE
  8
_0-0_0
  6
CONTINUOUS
 62
    7
 10
62.832878795830112
 20
173.14098795751227
 11
62.866456379761672
 21
173.08760281577867
  0
LINE
  8
_0-0_0
  6
CONTINUOUS
 62
    7
 10
62.866456379761672
 20
173.08760281577867
 11
62.869772073385008
 21
173.06397231271706
  0
LINE
  8
_0-0_0
  6
CONTINUOUS
 62
    7
 10
62.189757952819122
 20
173.06397231271706
 11
62.189881672730422
 21
173.06836436956885
  0
LINE
  8
_0-0_0
  6
CONTINUOUS
 62
    7
 10
62.189881672730422
 20
173.06836436956885
 11
62.211136753494827
 21
173.12330838218494
  0
LINE
  8
_0-0_0
  6
CONTINUOUS
 62
    7
 10
62.211136753494827
 20
173.12330838218494
 11
62.266934433499017
 21
173.17181895941255
  0
LINE
  8
_0-0_0
  6
CONTINUOUS
 62
    7
 10
62.266934433499017
 20
173.17181895941255
 11
62.351212437088577
 21
173.20863800502065
  0
LINE
  8
_0-0_0
  6
CONTINUOUS
 62
    7
 10
62.351212437088577
 20
173.20863800502065
 11
62.454840234808131
 21
173.22979410985596
  0
LINE
  8
_0-0_0
  6
CONTINUOUS
 62
    7
 10
62.486908435821647
 20
174.35826816496575
 11
62.562773485441596
 21
174.35925792425635
  0
LINE
  8
_0-0_0
  6
CONTINUOUS
 62
    7
 10
62.562773485441596
 20
174.35925792425635
 11
62.633615506662039
 21
174.34563636202026
  0
LINE
  8
_0-0_0
  6
CONTINUOUS
 62
    7
 10
62.633615506662039
 20
174.34563636202026
 11
62.688646123216074
 21
174.31950671674997
  0
LINE
  8
_0-0_0
  6
CONTINUOUS
 62
    7
 10
62.688646123216074
 20
174.31950671674997
 11
62.719477125116413
 21
174.28484039759886
  0
LINE
  8
_0-0_0
  6
CONTINUOUS
 62
    7
 10
62.719477125116413
 20
174.28484039759886
 11
62.724277457675527
 21
174.26341210895856
  0
LINE
  8
_0-0_0
  6
CONTINUOUS
 62
    7
 10
62.33527731251084
 20
174.26341210895856
 11
62.338098126488887
 21
174.27991634512836
  0
LINE
  8
_0-0_0
  6
CONTINUOUS
 62
    7
 10
62.338098126488887
 20
174.27991634512836
 11
62.365316506978758
 21
174.31533735573856
  0
LINE
  8
_0-0_0
  6
CONTINUOUS
 62
    7
 10
62.365316506978758
 20
174.31533735573856
 11
62.417575797519277
 21
174.34285266401557
  0
LINE
  8
_0-0_0
  6
CONTINUOUS
 62
    7
 10
62.417575797519277
 20
174.34285266401557
 11
62.486908435821647
 21
174.35826816496575
  0
LINE
  8
_0-0_0
  6
CONTINUOUS
 62
    7
 10
72.676752515741384
 20
184.46379712532266
 11
72.785254877966906
 21
184.42264788281835
  0
LINE
  8
_0-0_0
  6
CONTINUOUS
 62
    7
 10
72.785254877966906
 20
184.42264788281835
 11
72.911919323173834
 21
184.39768120471456
  0
LINE
  8
_0-0_0
  6
CONTINUOUS
 62
    7
 10
72.911919323173834
 20
184.39768120471456
 11
73.04736788208433
 21
184.39070340171617
  0
LINE
  8
_0-0_0
  6
CONTINUOUS
 62
    7
 10
73.04736788208433
 20
184.39070340171617
 11
73.181554497899356
 21
184.40228358541555
  0
LINE
  8
_0-0_0
  6
CONTINUOUS
 62
    7
 10
73.181554497899356
 20
184.40228358541555
 11
73.304532089748989
 21
184.43153097245107
  0
LINE
  8
_0-0_0
  6
CONTINUOUS
 62
    7
 10
73.304532089748989
 20
184.43153097245107
 11
73.407145384195815
 21
184.47626809238346
  0
LINE
  8
_0-0_0
  6
CONTINUOUS
 62
    7
 10
73.407145384195815
 20
184.47626809238346
 11
73.481847466649356
 21
184.53320399557177
  0
LINE
  8
_0-0_0
  6
CONTINUOUS
 62
    7
 10
73.481847466649356
 20
184.53320399557177
 11
73.52302145313584
 21
184.59808271706675
  0
LINE
  8
_0-0_0
  6
CONTINUOUS
 62
    7
 10
73.52302145313584
 20
184.59808271706675
 11
73.527673321801387
 21
184.66615341227367
  0
LINE
  8
_0-0_0
  6
CONTINUOUS
 62
    7
 10
73.527673321801387
 20
184.66615341227367
 11
73.495431912912011
 21
184.73229407686406
  0
LINE
  8
_0-0_0
  6
CONTINUOUS
 62
    7
 10
73.495431912912011
 20
184.73229407686406
 11
73.428697392747324
 21
184.79163014633195
  0
LINE
  8
_0-0_0
  6
CONTINUOUS
 62
    7
 10
73.428697392747324
 20
184.79163014633195
 11
73.332418557760036
 21
184.83978193581675
  0
LINE
  8
_0-0_0
  6
CONTINUOUS
 62
    7
 10
73.332418557760036
 20
184.83978193581675
 11
73.213721674841906
 21
184.87316156789015
  0
LINE
  8
_0-0_0
  6
CONTINUOUS
 62
    7
 10
73.213721674841906
 20
184.87316156789015
 11
73.081440345661179
 21
184.88926990034375
  0
LINE
  8
_0-0_0
  6
CONTINUOUS
 62
    7
 10
73.081440345661179
 20
184.88926990034375
 11
72.945348443211856
 21
184.88694396601096
  0
LINE
  8
_0-0_0
  6
CONTINUOUS
 62
    7
 10
72.945348443211856
 20
184.88694396601096
 11
72.815566256239748
 21
184.86635697276776
  0
LINE
  8
_0-0_0
  6
CONTINUOUS
 62
    7
 10
72.815566256239748
 20
184.86635697276776
 11
72.701694449863055
 21
184.82901830353205
  0
LINE
  8
_0-0_0
  6
CONTINUOUS
 62
    7
 10
72.701694449863055
 20
184.82901830353205
 11
72.612220209998156
 21
184.77769928431755
  0
LINE
  8
_0-0_0
  6
CONTINUOUS
 62
    7
 10
72.612220209998156
 20
184.77769928431755
 11
72.553725435927248
 21
184.71621048839276
  0
LINE
  8
_0-0_0
  6
CONTINUOUS
 62
    7
 10
72.553725435927248
 20
184.71621048839276
 11
72.530589812510811
 21
184.64910480849406
  0
LINE
  8
_0-0_0
  6
CONTINUOUS
 62
    7
 10
72.530589812510811
 20
184.64910480849406
 11
72.544520674525216
 21
184.58138052903885
  0
LINE
  8
_0-0_0
  6
CONTINUOUS
 62
    7
 10
72.544520674525216
 20
184.58138052903885
 11
72.594478774715242
 21
184.51803593444427
  0
LINE
  8
_0-0_0
  6
CONTINUOUS
 62
    7
 10
72.594478774715242
 20
184.51803593444427
 11
72.676752515741384
 21
184.46379712532266
  0
LINE
  8
_0-0_0
  6
CONTINUOUS
 62
    7
 10
145.50874046377243
 20
231.3803422715431
 11
145.40026284552923
 21
231.42149151404726
  0
LINE
  8
_0-0_0
  6
CONTINUOUS
 62
    7
 10
145.40026284552923
 20
231.42149151404726
 11
145.27357365634003
 21
231.44645819215111
  0
LINE
  8
_0-0_0
  6
CONTINUOUS
 62
    7
 10
145.27357365634003
 20
231.44645819215111
 11
145.13812509742954
 21
231.45341125116727
  0
LINE
  8
_0-0_0
  6
CONTINUOUS
 62
    7
 10
145.13812509742954
 20
231.45341125116727
 11
145.00393848161454
 21
231.44185581145018
  0
LINE
  8
_0-0_0
  6
CONTINUOUS
 62
    7
 10
145.00393848161454
 20
231.44185581145018
 11
144.88096088976482
 21
231.41260842441466
  0
LINE
  8
_0-0_0
  6
CONTINUOUS
 62
    7
 10
144.88096088976482
 20
231.41260842441466
 11
144.77834759531802
 21
231.36787130448226
  0
LINE
  8
_0-0_0
  6
CONTINUOUS
 62
    7
 10
144.77834759531802
 20
231.36787130448226
 11
144.70367025684672
 21
231.31093540129382
  0
LINE
  8
_0-0_0
  6
CONTINUOUS
 62
    7
 10
144.70367025684672
 20
231.31093540129382
 11
144.66247152637803
 21
231.24605667979893
  0
LINE
  8
_0-0_0
  6
CONTINUOUS
 62
    7
 10
144.66247152637803
 20
231.24605667979893
 11
144.65781965771254
 21
231.17801072857435
  0
LINE
  8
_0-0_0
  6
CONTINUOUS
 62
    7
 10
144.65781965771254
 20
231.17801072857435
 11
144.69006106660183
 21
231.11184532000163
  0
LINE
  8
_0-0_0
  6
CONTINUOUS
 62
    7
 10
144.69006106660183
 20
231.11184532000163
 11
144.75679558676651
 21
231.05250925053372
  0
LINE
  8
_0-0_0
  6
CONTINUOUS
 62
    7
 10
144.75679558676651
 20
231.05250925053372
 11
144.85307442175392
 21
231.00435746104893
  0
LINE
  8
_0-0_0
  6
CONTINUOUS
 62
    7
 10
144.85307442175392
 20
231.00435746104893
 11
144.97177130467193
 21
230.97100257295779
  0
LINE
  8
_0-0_0
  6
CONTINUOUS
 62
    7
 10
144.97177130467193
 20
230.97100257295779
 11
145.10407737783493
 21
230.95486949652195
  0
LINE
  8
_0-0_0
  6
CONTINUOUS
 62
    7
 10
145.10407737783493
 20
230.95486949652195
 11
145.24014453630204
 21
230.95719543085465
  0
LINE
  8
_0-0_0
  6
CONTINUOUS
 62
    7
 10
145.24014453630204
 20
230.95719543085465
 11
145.36995146725641
 21
230.97780716808029
  0
LINE
  8
_0-0_0
  6
CONTINUOUS
 62
    7
 10
145.36995146725641
 20
230.97780716808029
 11
145.48379852965084
 21
231.01514583731591
  0
LINE
  8
_0-0_0
  6
CONTINUOUS
 62
    7
 10
145.48379852965084
 20
231.01514583731591
 11
145.57329751349792
 21
231.06646485653039
  0
LINE
  8
_0-0_0
  6
CONTINUOUS
 62
    7
 10
145.57329751349792
 20
231.06646485653039
 11
145.63176754358662
 21
231.127928908473
  0
LINE
  8
_0-0_0
  6
CONTINUOUS
 62
    7
 10
145.63176754358662
 20
231.127928908473
 11
145.65490316700303
 21
231.19503458837164
  0
LINE
  8
_0-0_0
  6
CONTINUOUS
 62
    7
 10
145.65490316700303
 20
231.19503458837164
 11
145.64097230498862
 21
231.26275886782685
  0
LINE
  8
_0-0_0
  6
CONTINUOUS
 62
    7
 10
145.64097230498862
 20
231.26275886782685
 11
145.59103894878092
 21
231.32610346242143
  0
LINE
  8
_0-0_0
  6
CONTINUOUS
 62
    7
 10
145.59103894878092
 20
231.32610346242143
 11
145.50874046377243
 21
231.3803422715431
  0
LINE
  8
_0-0_0
  6
CONTINUOUS
 62
    7
 10
153.56976077363313
 20
225.98865328030575
 11
153.58220699671162
 21
225.98108162173307
  0
LINE
  8
_0-0_0
  6
CONTINUOUS
 62
    7
 10
153.58220699671162
 20
225.98108162173307
 11
153.59143650209592
 21
225.97244597192315
  0
LINE
  8
_0-0_0
  6
CONTINUOUS
 62
    7
 10
153.59143650209592
 20
225.97244597192315
 11
153.59712761801651
 21
225.96304325866305
  0
LINE
  8
_0-0_0
  6
CONTINUOUS
 62
    7
 10
153.59712761801651
 20
225.96304325866305
 11
153.59905764863313
 21
225.95329412965117
  0
LINE
  8
_0-0_0
  6
CONTINUOUS
 62
    7
 10
153.59905764863313
 20
225.95329412965117
 11
153.59712761801651
 21
225.94354500063935
  0
LINE
  8
_0-0_0
  6
CONTINUOUS
 62
    7
 10
153.59712761801651
 20
225.94354500063935
 11
153.59143650209592
 21
225.93416703136145
  0
LINE
  8
_0-0_0
  6
CONTINUOUS
 62
    7
 10
153.59143650209592
 20
225.93416703136145
 11
153.58220699671162
 21
225.92553138155145
  0
LINE
  8
_0-0_0
  6
CONTINUOUS
 62
    7
 10
153.58220699671162
 20
225.92553138155145
 11
153.56976077363313
 21
225.91793497899667
  0
LINE
  8
_0-0_0
  6
CONTINUOUS
 62
    7
 10
156.00929472897514
 20
226.13006513894175
 11
156.09156847000133
 21
226.07582632982005
  0
LINE
  8
_0-0_0
  6
CONTINUOUS
 62
    7
 10
156.09156847000133
 20
226.07582632982005
 11
156.14152657019142
 21
226.01248173522546
  0
LINE
  8
_0-0_0
  6
CONTINUOUS
 62
    7
 10
156.14152657019142
 20
226.01248173522546
 11
156.15543268822341
 21
225.94475745577026
  0
LINE
  8
_0-0_0
  6
CONTINUOUS
 62
    7
 10
156.15543268822341
 20
225.94475745577026
 11
156.13229706480703
 21
225.87767651985385
  0
LINE
  8
_0-0_0
  6
CONTINUOUS
 62
    7
 10
156.13229706480703
 20
225.87767651985385
 11
156.07382703471833
 21
225.81618772392906
  0
LINE
  8
_0-0_0
  6
CONTINUOUS
 62
    7
 10
156.07382703471833
 20
225.81618772392906
 11
155.98432805087123
 21
225.76486870471456
  0
LINE
  8
_0-0_0
  6
CONTINUOUS
 62
    7
 10
155.98432805087123
 20
225.76486870471456
 11
155.87048098847683
 21
225.72753003547885
  0
LINE
  8
_0-0_0
  6
CONTINUOUS
 62
    7
 10
155.87048098847683
 20
225.72753003547885
 11
155.74069880150472
 21
225.70694304223557
  0
LINE
  8
_0-0_0
  6
CONTINUOUS
 62
    7
 10
155.74069880150472
 20
225.70694304223557
 11
155.60460689905534
 21
225.70461710790286
  0
LINE
  8
_0-0_0
  6
CONTINUOUS
 62
    7
 10
155.60460689905534
 20
225.70461710790286
 11
155.47230082589232
 21
225.72072544035635
  0
LINE
  8
_0-0_0
  6
CONTINUOUS
 62
    7
 10
155.47230082589232
 20
225.72072544035635
 11
155.35362868695663
 21
225.75410507242987
  0
LINE
  8
_0-0_0
  6
CONTINUOUS
 62
    7
 10
155.35362868695663
 20
225.75410507242987
 11
155.25732510798693
 21
225.80223211793245
  0
LINE
  8
_0-0_0
  6
CONTINUOUS
 62
    7
 10
155.25732510798693
 20
225.80223211793245
 11
155.19059058782221
 21
225.86159293138255
  0
LINE
  8
_0-0_0
  6
CONTINUOUS
 62
    7
 10
155.19059058782221
 20
225.86159293138255
 11
155.15834917893292
 21
225.92773359597297
  0
LINE
  8
_0-0_0
  6
CONTINUOUS
 62
    7
 10
155.15834917893292
 20
225.92773359597297
 11
155.16300104759841
 21
225.99577954719766
  0
LINE
  8
_0-0_0
  6
CONTINUOUS
 62
    7
 10
155.16300104759841
 20
225.99577954719766
 11
155.20419977806722
 21
226.06068301267487
  0
LINE
  8
_0-0_0
  6
CONTINUOUS
 62
    7
 10
155.20419977806722
 20
226.06068301267487
 11
155.27887711653852
 21
226.11759417188097
  0
LINE
  8
_0-0_0
  6
CONTINUOUS
 62
    7
 10
155.27887711653852
 20
226.11759417188097
 11
155.38151515496753
 21
226.16235603579557
  0
LINE
  8
_0-0_0
  6
CONTINUOUS
 62
    7
 10
155.38151515496753
 20
226.16235603579557
 11
155.50446800283493
 21
226.19157867884877
  0
LINE
  8
_0-0_0
  6
CONTINUOUS
 62
    7
 10
155.50446800283493
 20
226.19157867884877
 11
155.63865461864992
 21
226.20315886254815
  0
LINE
  8
_0-0_0
  6
CONTINUOUS
 62
    7
 10
155.63865461864992
 20
226.20315886254815
 11
155.77412792154271
 21
226.19618105954987
  0
LINE
  8
_0-0_0
  6
CONTINUOUS
 62
    7
 10
155.77412792154271
 20
226.19618105954987
 11
155.90079236674964
 21
226.17121438144596
  0
LINE
  8
_0-0_0
  6
CONTINUOUS
 62
    7
 10
155.90079236674964
 20
226.17121438144596
 11
156.00929472897514
 21
226.13006513894175
  0
LINE
  8
_0-0_0
  6
CONTINUOUS
 62
    7
 10
64.615732205880761
 20
189.85548611655994
 11
64.603285982802248
 21
189.86305777513255
  0
LINE
  8
_0-0_0
  6
CONTINUOUS
 62
    7
 10
64.603285982802248
 20
189.86305777513255
 11
64.594056477417922
 21
189.87171816892487
  0
LINE
  8
_0-0_0
  6
CONTINUOUS
 62
    7
 10
64.594056477417922
 20
189.87171816892487
 11
64.588365361497324
 21
189.88109613820265
  0
LINE
  8
_0-0_0
  6
CONTINUOUS
 62
    7
 10
64.588365361497324
 20
189.88109613820265
 11
64.586435330880761
 21
189.89084526721456
  0
LINE
  8
_0-0_0
  6
CONTINUOUS
 62
    7
 10
64.586435330880761
 20
189.89084526721456
 11
64.588365361497324
 21
189.90059439622635
  0
LINE
  8
_0-0_0
  6
CONTINUOUS
 62
    7
 10
64.588365361497324
 20
189.90059439622635
 11
64.594056477417922
 21
189.90997236550425
  0
LINE
  8
_0-0_0
  6
CONTINUOUS
 62
    7
 10
64.594056477417922
 20
189.90997236550425
 11
64.603285982802248
 21
189.91863275929646
  0
LINE
  8
_0-0_0
  6
CONTINUOUS
 62
    7
 10
64.603285982802248
 20
189.91863275929646
 11
64.615732205880761
 21
189.92620441786906
  0
LINE
  8
_0-0_0
  6
CONTINUOUS
 62
    7
 10
62.17622299452097
 20
189.71407425792395
 11
62.093924509512533
 21
189.76831306704557
  0
LINE
  8
_0-0_0
  6
CONTINUOUS
 62
    7
 10
62.093924509512533
 20
189.76831306704557
 11
62.043991153304745
 21
189.83165766164015
  0
LINE
  8
_0-0_0
  6
CONTINUOUS
 62
    7
 10
62.043991153304745
 20
189.83165766164015
 11
62.030060291290397
 21
189.89938194109536
  0
LINE
  8
_0-0_0
  6
CONTINUOUS
 62
    7
 10
62.030060291290397
 20
189.89938194109536
 11
62.053195914706777
 21
189.96648762099406
  0
LINE
  8
_0-0_0
  6
CONTINUOUS
 62
    7
 10
62.053195914706777
 20
189.96648762099406
 11
62.111665944795476
 21
190.02795167293667
  0
LINE
  8
_0-0_0
  6
CONTINUOUS
 62
    7
 10
62.111665944795476
 20
190.02795167293667
 11
62.201164928642612
 21
190.07927069215117
  0
LINE
  8
_0-0_0
  6
CONTINUOUS
 62
    7
 10
62.201164928642612
 20
190.07927069215117
 11
62.315011991037039
 21
190.11660936138685
  0
LINE
  8
_0-0_0
  6
CONTINUOUS
 62
    7
 10
62.315011991037039
 20
190.11660936138685
 11
62.444818921991413
 21
190.13722109861237
  0
LINE
  8
_0-0_0
  6
CONTINUOUS
 62
    7
 10
62.444818921991413
 20
190.13722109861237
 11
62.58088608045847
 21
190.13954703294505
  0
LINE
  8
_0-0_0
  6
CONTINUOUS
 62
    7
 10
62.58088608045847
 20
190.13954703294505
 11
62.713192153621492
 21
190.12341395650927
  0
LINE
  8
_0-0_0
  6
CONTINUOUS
 62
    7
 10
62.713192153621492
 20
190.12341395650927
 11
62.831889036539565
 21
190.09005906841807
  0
LINE
  8
_0-0_0
  6
CONTINUOUS
 62
    7
 10
62.831889036539565
 20
190.09005906841807
 11
62.928167871526881
 21
190.04190727893325
  0
LINE
  8
_0-0_0
  6
CONTINUOUS
 62
    7
 10
62.928167871526881
 20
190.04190727893325
 11
62.994902391691596
 21
189.98257120946536
  0
LINE
  8
_0-0_0
  6
CONTINUOUS
 62
    7
 10
62.994902391691596
 20
189.98257120946536
 11
63.027143800580944
 21
189.91640580089276
  0
LINE
  8
_0-0_0
  6
CONTINUOUS
 62
    7
 10
63.027143800580944
 20
189.91640580089276
 11
63.022491931915397
 21
189.84835984966807
  0
LINE
  8
_0-0_0
  6
CONTINUOUS
 62
    7
 10
63.022491931915397
 20
189.84835984966807
 11
62.981293201446647
 21
189.78348112817315
  0
LINE
  8
_0-0_0
  6
CONTINUOUS
 62
    7
 10
62.981293201446647
 20
189.78348112817315
 11
62.906615862975372
 21
189.72654522498476
  0
LINE
  8
_0-0_0
  6
CONTINUOUS
 62
    7
 10
62.906615862975372
 20
189.72654522498476
 11
62.804002568528574
 21
189.68180810505237
  0
LINE
  8
_0-0_0
  6
CONTINUOUS
 62
    7
 10
62.804002568528574
 20
189.68180810505237
 11
62.681024976678913
 21
189.65256071801687
  0
LINE
  8
_0-0_0
  6
CONTINUOUS
 62
    7
 10
62.681024976678913
 20
189.65256071801687
 11
62.546838360863887
 21
189.64100527829987
  0
LINE
  8
_0-0_0
  6
CONTINUOUS
 62
    7
 10
62.546838360863887
 20
189.64100527829987
 11
62.411389801953419
 21
189.64795833731586
  0
LINE
  8
_0-0_0
  6
CONTINUOUS
 62
    7
 10
62.411389801953419
 20
189.64795833731586
 11
62.284700612764226
 21
189.67292501541976
  0
LINE
  8
_0-0_0
  6
CONTINUOUS
 62
    7
 10
62.284700612764226
 20
189.67292501541976
 11
62.17622299452097
 21
189.71407425792395
  0
LINE
  8
_0-0_0
  6
CONTINUOUS
 62
    7
 10
145.01378658655543
 20
249.72676792082518
 11
144.97043512962972
 21
249.75923202555498
  0
LINE
  8
_0-0_0
  6
CONTINUOUS
 62
    7
 10
144.97043512962972
 20
249.75923202555498
 11
144.95519283655534
 21
249.79748622213424
  0
LINE
  8
_0-0_0
  6
CONTINUOUS
 62
    7
 10
144.95519283655534
 20
249.79748622213424
 11
144.97043512962972
 21
249.83576516269591
  0
LINE
  8
_0-0_0
  6
CONTINUOUS
 62
    7
 10
144.97043512962972
 20
249.83576516269591
 11
145.01378658655543
 21
249.86820452344341
  0
LINE
  8
_0-0_0
  6
CONTINUOUS
 62
    7
 10
145.01378658655543
 20
249.86820452344341
 11
145.07866530805032
 21
249.88988025190622
  0
LINE
  8
_0-0_0
  6
CONTINUOUS
 62
    7
 10
145.07866530805032
 20
249.88988025190622
 11
145.15519844519142
 21
249.89750139844341
  0
LINE
  8
_0-0_0
  6
CONTINUOUS
 62
    7
 10
145.15519844519142
 20
249.89750139844341
 11
145.23173158233243
 21
249.88988025190622
  0
LINE
  8
_0-0_0
  6
CONTINUOUS
 62
    7
 10
145.23173158233243
 20
249.88988025190622
 11
145.29661030382732
 21
249.86820452344341
  0
LINE
  8
_0-0_0
  6
CONTINUOUS
 62
    7
 10
145.29661030382732
 20
249.86820452344341
 11
145.33998650473512
 21
249.83576516269591
  0
LINE
  8
_0-0_0
  6
CONTINUOUS
 62
    7
 10
145.33998650473512
 20
249.83576516269591
 11
145.35520405382732
 21
249.79748622213424
  0
LINE
  8
_0-0_0
  6
CONTINUOUS
 62
    7
 10
145.35520405382732
 20
249.79748622213424
 11
145.33998650473512
 21
249.75923202555498
  0
LINE
  8
_0-0_0
  6
CONTINUOUS
 62
    7
 10
145.33998650473512
 20
249.75923202555498
 11
145.29661030382732
 21
249.72676792082518
  0
LINE
  8
_0-0_0
  6
CONTINUOUS
 62
    7
 10
145.29661030382732
 20
249.72676792082518
 11
145.23173158233243
 21
249.70509219236226
  0
LINE
  8
_0-0_0
  6
CONTINUOUS
 62
    7
 10
145.23173158233243
 20
249.70509219236226
 11
145.15519844519142
 21
249.69749578980748
  0
LINE
  8
_0-0_0
  6
CONTINUOUS
 62
    7
 10
145.15519844519142
 20
249.69749578980748
 11
145.07866530805032
 21
249.70509219236226
  0
LINE
  8
_0-0_0
  6
CONTINUOUS
 62
    7
 10
145.07866530805032
 20
249.70509219236226
 11
145.01378658655543
 21
249.72676792082518
  0
LINE
  8
_0-0_0
  6
CONTINUOUS
 62
    7
 10
155.83249897570232
 20
244.6002601875058
 11
155.87587517661024
 21
244.56782082675841
  0
LINE
  8
_0-0_0
  6
CONTINUOUS
 62
    7
 10
155.87587517661024
 20
244.56782082675841
 11
155.89109272570232
 21
244.52954188619663
  0
LINE
  8
_0-0_0
  6
CONTINUOUS
 62
    7
 10
155.89109272570232
 20
244.52954188619663
 11
155.87587517661024
 21
244.49128768961748
  0
LINE
  8
_0-0_0
  6
CONTINUOUS
 62
    7
 10
155.87587517661024
 20
244.49128768961748
 11
155.83249897570232
 21
244.45882358488768
  0
LINE
  8
_0-0_0
  6
CONTINUOUS
 62
    7
 10
155.83249897570232
 20
244.45882358488768
 11
155.76762025420743
 21
244.43714785642487
  0
LINE
  8
_0-0_0
  6
CONTINUOUS
 62
    7
 10
155.76762025420743
 20
244.43714785642487
 11
155.69108711706642
 21
244.42955145386986
  0
LINE
  8
_0-0_0
  6
CONTINUOUS
 62
    7
 10
155.69108711706642
 20
244.42955145386986
 11
155.61455397992532
 21
244.43714785642487
  0
LINE
  8
_0-0_0
  6
CONTINUOUS
 62
    7
 10
155.61455397992532
 20
244.43714785642487
 11
155.54967525843034
 21
244.45882358488768
  0
LINE
  8
_0-0_0
  6
CONTINUOUS
 62
    7
 10
155.54967525843034
 20
244.45882358488768
 11
155.50632380150472
 21
244.49128768961748
  0
LINE
  8
_0-0_0
  6
CONTINUOUS
 62
    7
 10
155.50632380150472
 20
244.49128768961748
 11
155.49108150843034
 21
244.52954188619663
  0
LINE
  8
_0-0_0
  6
CONTINUOUS
 62
    7
 10
155.49108150843034
 20
244.52954188619663
 11
155.50632380150472
 21
244.56782082675841
  0
LINE
  8
_0-0_0
  6
CONTINUOUS
 62
    7
 10
155.50632380150472
 20
244.56782082675841
 11
155.54967525843034
 21
244.6002601875058
  0
LINE
  8
_0-0_0
  6
CONTINUOUS
 62
    7
 10
155.54967525843034
 20
244.6002601875058
 11
155.61455397992532
 21
244.62193591596872
  0
LINE
  8
_0-0_0
  6
CONTINUOUS
 62
    7
 10
155.61455397992532
 20
244.62193591596872
 11
155.69108711706642
 21
244.62955706250591
  0
LINE
  8
_0-0_0
  6
CONTINUOUS
 62
    7
 10
155.69108711706642
 20
244.62955706250591
 11
155.76762025420743
 21
244.62193591596872
  0
LINE
  8
_0-0_0
  6
CONTINUOUS
 62
    7
 10
155.76762025420743
 20
244.62193591596872
 11
155.83249897570232
 21
244.6002601875058
  0
LINE
  8
_0-0_0
  6
CONTINUOUS
 62
    7
 10
143.13994955372172
 20
249.37144433552101
 11
143.13304598267024
 21
249.36882147340111
  0
LINE
  8
_0-0_0
  6
CONTINUOUS
 62
    7
 10
143.13304598267024
 20
249.36882147340111
 11
143.12641459542363
 21
249.36798017800425
  0
LINE
  8
_0-0_0
  6
CONTINUOUS
 62
    7
 10
143.12641459542363
 20
249.36798017800425
 11
143.12030283180454
 21
249.36892044933018
  0
LINE
  8
_0-0_0
  6
CONTINUOUS
 62
    7
 10
143.12030283180454
 20
249.36892044933018
 11
143.11493338765334
 21
249.37161754339695
  0
LINE
  8
_0-0_0
  6
CONTINUOUS
 62
    7
 10
143.11493338765334
 20
249.37161754339695
 11
143.11055370279271
 21
249.37599722825757
  0
LINE
  8
_0-0_0
  6
CONTINUOUS
 62
    7
 10
143.11055370279271
 20
249.37599722825757
 11
143.10728749713394
 21
249.38183680807163
  0
LINE
  8
_0-0_0
  6
CONTINUOUS
 62
    7
 10
143.10728749713394
 20
249.38183680807163
 11
143.10525849058834
 21
249.38896307496361
  0
LINE
  8
_0-0_0
  6
CONTINUOUS
 62
    7
 10
143.10525849058834
 20
249.38896307496361
 11
143.10459040306722
 21
249.39705435716382
  0
LINE
  8
_0-0_0
  6
CONTINUOUS
 62
    7
 10
143.03387210175813
 20
249.3184179815305
 11
143.03523302078253
 21
249.3021859291656
  0
LINE
  8
_0-0_0
  6
CONTINUOUS
 62
    7
 10
143.03523302078253
 20
249.3021859291656
 11
143.03926628989151
 21
249.28795813936392
  0
LINE
  8
_0-0_0
  6
CONTINUOUS
 62
    7
 10
143.03926628989151
 20
249.28795813936392
 11
143.04579870120912
 21
249.27625423575341
  0
LINE
  8
_0-0_0
  6
CONTINUOUS
 62
    7
 10
143.04579870120912
 20
249.27625423575341
 11
143.05458281491264
 21
249.26751961001435
  0
LINE
  8
_0-0_0
  6
CONTINUOUS
 62
    7
 10
143.05458281491264
 20
249.26751961001435
 11
143.06529695923274
 21
249.26212542188091
  0
LINE
  8
_0-0_0
  6
CONTINUOUS
 62
    7
 10
143.06529695923274
 20
249.26212542188091
 11
143.07752048647092
 21
249.26022013524664
  0
LINE
  8
_0-0_0
  6
CONTINUOUS
 62
    7
 10
143.07752048647092
 20
249.26022013524664
 11
143.09078326096412
 21
249.26192747002278
  0
LINE
  8
_0-0_0
  6
CONTINUOUS
 62
    7
 10
143.09078326096412
 20
249.26192747002278
 11
143.10459040306722
 21
249.26714845028039
  0
LINE
  8
_0-0_0
  6
CONTINUOUS
 62
    7
 10
142.99851295110352
 20
249.64714178590111
 11
143.00541652215503
 21
249.64976464802101
  0
LINE
  8
_0-0_0
  6
CONTINUOUS
 62
    7
 10
143.00541652215503
 20
249.64976464802101
 11
143.01204790940173
 21
249.6506059434181
  0
LINE
  8
_0-0_0
  6
CONTINUOUS
 62
    7
 10
143.01204790940173
 20
249.6506059434181
 11
143.01815967302073
 21
249.64966567209206
  0
LINE
  8
_0-0_0
  6
CONTINUOUS
 62
    7
 10
143.01815967302073
 20
249.64966567209206
 11
143.02352911717193
 21
249.64696857802539
  0
LINE
  8
_0-0_0
  6
CONTINUOUS
 62
    7
 10
143.02352911717193
 20
249.64696857802539
 11
143.02790880203253
 21
249.64258889316466
  0
LINE
  8
_0-0_0
  6
CONTINUOUS
 62
    7
 10
143.02790880203253
 20
249.64258889316466
 11
143.03117500769142
 21
249.63674931335061
  0
LINE
  8
_0-0_0
  6
CONTINUOUS
 62
    7
 10
143.03117500769142
 20
249.63674931335061
 11
143.03320401423693
 21
249.62962304645851
  0
LINE
  8
_0-0_0
  6
CONTINUOUS
 62
    7
 10
143.03320401423693
 20
249.62962304645851
 11
143.03387210175813
 21
249.62150702027611
  0
LINE
  8
_0-0_0
  6
CONTINUOUS
 62
    7
 10
143.10459040306722
 20
249.70016813989173
 11
143.10355115581214
 21
249.71442067367559
  0
LINE
  8
_0-0_0
  6
CONTINUOUS
 62
    7
 10
143.10355115581214
 20
249.71442067367559
 11
143.10048290201144
 21
249.72718856852362
  0
LINE
  8
_0-0_0
  6
CONTINUOUS
 62
    7
 10
143.10048290201144
 20
249.72718856852362
 11
143.09545987361193
 21
249.73815015266621
  0
LINE
  8
_0-0_0
  6
CONTINUOUS
 62
    7
 10
143.09545987361193
 20
249.73815015266621
 11
143.08865527848954
 21
249.74698375433445
  0
LINE
  8
_0-0_0
  6
CONTINUOUS
 62
    7
 10
143.08865527848954
 20
249.74698375433445
 11
143.08024232451993
 21
249.7533924457407
  0
LINE
  8
_0-0_0
  6
CONTINUOUS
 62
    7
 10
143.08024232451993
 20
249.7533924457407
 11
143.07046845152584
 21
249.75722776299153
  0
LINE
  8
_0-0_0
  6
CONTINUOUS
 62
    7
 10
143.07046845152584
 20
249.75722776299153
 11
143.05960584331214
 21
249.75834124219341
  0
LINE
  8
_0-0_0
  6
CONTINUOUS
 62
    7
 10
143.05960584331214
 20
249.75834124219341
 11
143.04802565961282
 21
249.75673288334622
  0
LINE
  8
_0-0_0
  6
CONTINUOUS
 62
    7
 10
142.32676332061362
 20
249.39611408583789
 11
142.31518313691433
 21
249.39772244468497
  0
LINE
  8
_0-0_0
  6
CONTINUOUS
 62
    7
 10
142.31518313691433
 20
249.39772244468497
 11
142.30434527268292
 21
249.3966089654831
  0
LINE
  8
_0-0_0
  6
CONTINUOUS
 62
    7
 10
142.30434527268292
 20
249.3966089654831
 11
142.29457139968883
 21
249.39277364823226
  0
LINE
  8
_0-0_0
  6
CONTINUOUS
 62
    7
 10
142.29457139968883
 20
249.39277364823226
 11
142.28613370173693
 21
249.38634021284372
  0
LINE
  8
_0-0_0
  6
CONTINUOUS
 62
    7
 10
142.28613370173693
 20
249.38634021284372
 11
142.27932910661454
 21
249.37753135515788
  0
LINE
  8
_0-0_0
  6
CONTINUOUS
 62
    7
 10
142.27932910661454
 20
249.37753135515788
 11
142.27430607821503
 21
249.36656977101529
  0
LINE
  8
_0-0_0
  6
CONTINUOUS
 62
    7
 10
142.27430607821503
 20
249.36656977101529
 11
142.27123782441433
 21
249.35377713218497
  0
LINE
  8
_0-0_0
  6
CONTINUOUS
 62
    7
 10
142.27123782441433
 20
249.35377713218497
 11
142.27019857715922
 21
249.33954934238341
  0
LINE
  8
_0-0_0
  6
CONTINUOUS
 62
    7
 10
110.01198852384422
 20
227.39094424314357
 11
109.84815861727753
 21
227.46032636941047
  0
LINE
  8
_0-0_0
  6
CONTINUOUS
 62
    7
 10
109.84815861727753
 20
227.46032636941047
 11
109.66371697348522
 21
227.51528275401776
  0
LINE
  8
_0-0_0
  6
CONTINUOUS
 62
    7
 10
109.66371697348522
 20
227.51528275401776
 11
109.46368662086702
 21
227.55430401404735
  0
LINE
  8
_0-0_0
  6
CONTINUOUS
 62
    7
 10
109.46368662086702
 20
227.55430401404735
 11
109.25356072348522
 21
227.57635090224406
  0
LINE
  8
_0-0_0
  6
CONTINUOUS
 62
    7
 10
109.25356072348522
 20
227.57635090224406
 11
109.03903039726063
 21
227.58078007506927
  0
LINE
  8
_0-0_0
  6
CONTINUOUS
 62
    7
 10
109.03903039726063
 20
227.58078007506927
 11
108.82598470997172
 21
227.56749255659366
  0
LINE
  8
_0-0_0
  6
CONTINUOUS
 62
    7
 10
108.82598470997172
 20
227.56749255659366
 11
108.62018900948613
 21
227.53685950655145
  0
LINE
  8
_0-0_0
  6
CONTINUOUS
 62
    7
 10
108.62018900948613
 20
227.53685950655145
 11
108.42730966774202
 21
227.48972222033944
  0
LINE
  8
_0-0_0
  6
CONTINUOUS
 62
    7
 10
108.42730966774202
 20
227.48972222033944
 11
108.25256766499713
 21
227.42734264105317
  0
LINE
  8
_0-0_0
  6
CONTINUOUS
 62
    7
 10
108.25256766499713
 20
227.42734264105317
 11
108.10073858982823
 21
227.35142810346875
  0
LINE
  8
_0-0_0
  6
CONTINUOUS
 62
    7
 10
108.10073858982823
 20
227.35142810346875
 11
107.97597943125552
 21
227.26405710209625
  0
LINE
  8
_0-0_0
  6
CONTINUOUS
 62
    7
 10
107.97597943125552
 20
227.26405710209625
 11
107.88168011484933
 21
227.16760505923307
  0
LINE
  8
_0-0_0
  6
CONTINUOUS
 62
    7
 10
107.88168011484933
 20
227.16760505923307
 11
107.82041401476482
 21
227.06471958098135
  0
LINE
  8
_0-0_0
  6
CONTINUOUS
 62
    7
 10
107.82041401476482
 20
227.06471958098135
 11
107.79386372179613
 21
226.95819673733695
  0
LINE
  8
_0-0_0
  6
CONTINUOUS
 62
    7
 10
107.79386372179613
 20
226.95819673733695
 11
107.80274681142873
 21
226.85093157422466
  0
LINE
  8
_0-0_0
  6
CONTINUOUS
 62
    7
 10
107.80274681142873
 20
226.85093157422466
 11
107.84679109985773
 21
226.74586862553375
  0
LINE
  8
_0-0_0
  6
CONTINUOUS
 62
    7
 10
107.84679109985773
 20
226.74586862553375
 11
107.92483361991683
 21
226.64585344922466
  0
LINE
  8
_0-0_0
  6
CONTINUOUS
 62
    7
 10
107.92483361991683
 20
226.64585344922466
 11
108.03474638913133
 21
226.55363262732857
  0
LINE
  8
_0-0_0
  6
CONTINUOUS
 62
    7
 10
108.03474638913133
 20
226.55363262732857
 11
108.17351064166513
 21
226.47170530205395
  0
LINE
  8
_0-0_0
  6
CONTINUOUS
 62
    7
 10
108.17351064166513
 20
226.47170530205395
 11
108.33736529221413
 21
226.40232317578716
  0
LINE
  8
_0-0_0
  6
CONTINUOUS
 62
    7
 10
108.33736529221413
 20
226.40232317578716
 11
108.52180693600643
 21
226.34739153516216
  0
LINE
  8
_0-0_0
  6
CONTINUOUS
 62
    7
 10
108.52180693600643
 20
226.34739153516216
 11
108.72181254464233
 21
226.30834553115017
  0
LINE
  8
_0-0_0
  6
CONTINUOUS
 62
    7
 10
108.72181254464233
 20
226.30834553115017
 11
108.93196318600633
 21
226.28632338693586
  0
LINE
  8
_0-0_0
  6
CONTINUOUS
 62
    7
 10
108.93196318600633
 20
226.28632338693586
 11
109.14646876824882
 21
226.28189421411065
  0
LINE
  8
_0-0_0
  6
CONTINUOUS
 62
    7
 10
109.14646876824882
 20
226.28189421411065
 11
109.35953919951993
 21
226.29515698860385
  0
LINE
  8
_0-0_0
  6
CONTINUOUS
 62
    7
 10
109.35953919951993
 20
226.29515698860385
 11
109.56531015602323
 21
226.32579003864606
  0
LINE
  8
_0-0_0
  6
CONTINUOUS
 62
    7
 10
109.56531015602323
 20
226.32579003864606
 11
109.75821424174963
 21
226.37295206884036
  0
LINE
  8
_0-0_0
  6
CONTINUOUS
 62
    7
 10
109.75821424174963
 20
226.37295206884036
 11
109.93293150051232
 21
226.43533164812666
  0
LINE
  8
_0-0_0
  6
CONTINUOUS
 62
    7
 10
109.93293150051232
 20
226.43533164812666
 11
110.08476057568123
 21
226.51124618571117
  0
LINE
  8
_0-0_0
  6
CONTINUOUS
 62
    7
 10
110.08476057568123
 20
226.51124618571117
 11
110.20951973425383
 21
226.59861718708356
  0
LINE
  8
_0-0_0
  6
CONTINUOUS
 62
    7
 10
110.20951973425383
 20
226.59861718708356
 11
110.30381905066012
 21
226.69504448596456
  0
LINE
  8
_0-0_0
  6
CONTINUOUS
 62
    7
 10
110.30381905066012
 20
226.69504448596456
 11
110.36508515074453
 21
226.79795470819846
  0
LINE
  8
_0-0_0
  6
CONTINUOUS
 62
    7
 10
110.36508515074453
 20
226.79795470819846
 11
110.39163544371333
 21
226.90447755184294
  0
LINE
  8
_0-0_0
  6
CONTINUOUS
 62
    7
 10
110.39163544371333
 20
226.90447755184294
 11
110.38277709806303
 21
227.01174271495526
  0
LINE
  8
_0-0_0
  6
CONTINUOUS
 62
    7
 10
110.38277709806303
 20
227.01174271495526
 11
110.33870806565163
 21
227.11680566364606
  0
LINE
  8
_0-0_0
  6
CONTINUOUS
 62
    7
 10
110.33870806565163
 20
227.11680566364606
 11
110.26066554559253
 21
227.21682083995526
  0
LINE
  8
_0-0_0
  6
CONTINUOUS
 62
    7
 10
110.26066554559253
 20
227.21682083995526
 11
110.15075277637803
 21
227.30904166185135
  0
LINE
  8
_0-0_0
  6
CONTINUOUS
 62
    7
 10
110.15075277637803
 20
227.30904166185135
 11
110.01198852384422
 21
227.39094424314357
  0
LINE
  8
_0-0_0
  6
CONTINUOUS
 62
    7
 10
81.51557516407334
 20
213.14274065625585
 11
81.590203014580084
 21
213.09728596083767
  0
LINE
  8
_0-0_0
  6
CONTINUOUS
 62
    7
 10
81.590203014580084
 20
213.09728596083767
 11
81.645654278832637
 21
213.04542257401346
  0
LINE
  8
_0-0_0
  6
CONTINUOUS
 62
    7
 10
81.645654278832637
 20
213.04542257401346
 11
81.679800974356255
 21
212.98915475834625
  0
LINE
  8
_0-0_0
  6
CONTINUOUS
 62
    7
 10
81.679800974356255
 20
212.98915475834625
 11
81.691306926108837
 21
212.93061049631075
  0
LINE
  8
_0-0_0
  6
CONTINUOUS
 62
    7
 10
81.691306926108837
 20
212.93061049631075
 11
81.679800974356255
 21
212.87209097825755
  0
LINE
  8
_0-0_0
  6
CONTINUOUS
 62
    7
 10
81.679800974356255
 20
212.87209097825755
 11
81.645654278832637
 21
212.81582316259036
  0
LINE
  8
_0-0_0
  6
CONTINUOUS
 62
    7
 10
81.645654278832637
 20
212.81582316259036
 11
81.590203014580084
 21
212.76395977576595
  0
LINE
  8
_0-0_0
  6
CONTINUOUS
 62
    7
 10
81.590203014580084
 20
212.76395977576595
 11
81.51557516407334
 21
212.71848033636576
  0
LINE
  8
_0-0_0
  6
CONTINUOUS
 62
    7
 10
80.101357601784514
 20
212.43565661909375
 11
80.026754495260036
 21
212.48111131451185
  0
LINE
  8
_0-0_0
  6
CONTINUOUS
 62
    7
 10
80.026754495260036
 20
212.48111131451185
 11
79.971303231007425
 21
212.53297470133617
  0
LINE
  8
_0-0_0
  6
CONTINUOUS
 62
    7
 10
79.971303231007425
 20
212.53297470133617
 11
79.937156535483808
 21
212.58924251700336
  0
LINE
  8
_0-0_0
  6
CONTINUOUS
 62
    7
 10
79.937156535483808
 20
212.58924251700336
 11
79.925625839748989
 21
212.64778677903885
  0
LINE
  8
_0-0_0
  6
CONTINUOUS
 62
    7
 10
79.925625839748989
 20
212.64778677903885
 11
79.937156535483808
 21
212.70630629709206
  0
LINE
  8
_0-0_0
  6
CONTINUOUS
 62
    7
 10
79.937156535483808
 20
212.70630629709206
 11
79.971303231007425
 21
212.76257411275927
  0
LINE
  8
_0-0_0
  6
CONTINUOUS
 62
    7
 10
79.971303231007425
 20
212.76257411275927
 11
80.026754495260036
 21
212.81443749958356
  0
LINE
  8
_0-0_0
  6
CONTINUOUS
 62
    7
 10
80.026754495260036
 20
212.81443749958356
 11
80.101357601784514
 21
212.85991693898396
  0
LINE
  8
_0-0_0
  6
CONTINUOUS
 62
    7
 10
138.08413537772933
 20
241.42701767008612
 11
138.15873848425383
 21
241.38156297466821
  0
LINE
  8
_0-0_0
  6
CONTINUOUS
 62
    7
 10
138.15873848425383
 20
241.38156297466821
 11
138.21418974850641
 21
241.32969958784372
  0
LINE
  8
_0-0_0
  6
CONTINUOUS
 62
    7
 10
138.21418974850641
 20
241.32969958784372
 11
138.24833644403003
 21
241.27340702819424
  0
LINE
  8
_0-0_0
  6
CONTINUOUS
 62
    7
 10
138.24833644403003
 20
241.27340702819424
 11
138.25986713976482
 21
241.21488751014101
  0
LINE
  8
_0-0_0
  6
CONTINUOUS
 62
    7
 10
138.25986713976482
 20
241.21488751014101
 11
138.24833644403003
 21
241.15636799208789
  0
LINE
  8
_0-0_0
  6
CONTINUOUS
 62
    7
 10
138.24833644403003
 20
241.15636799208789
 11
138.21418974850641
 21
241.1000754324383
  0
LINE
  8
_0-0_0
  6
CONTINUOUS
 62
    7
 10
138.21418974850641
 20
241.1000754324383
 11
138.15873848425383
 21
241.04821204561392
  0
LINE
  8
_0-0_0
  6
CONTINUOUS
 62
    7
 10
138.15873848425383
 20
241.04821204561392
 11
138.08413537772933
 21
241.00275735019591
  0
LINE
  8
_0-0_0
  6
CONTINUOUS
 62
    7
 10
136.66991781544053
 20
240.71990888894175
 11
136.59528996493384
 21
240.76538832834206
  0
LINE
  8
_0-0_0
  6
CONTINUOUS
 62
    7
 10
136.59528996493384
 20
240.76538832834206
 11
136.53986344466344
 21
240.81725171516621
  0
LINE
  8
_0-0_0
  6
CONTINUOUS
 62
    7
 10
136.53986344466344
 20
240.81725171516621
 11
136.50571674913982
 21
240.87351953083351
  0
LINE
  8
_0-0_0
  6
CONTINUOUS
 62
    7
 10
136.50571674913982
 20
240.87351953083351
 11
136.49418605340503
 21
240.93203904888685
  0
LINE
  8
_0-0_0
  6
CONTINUOUS
 62
    7
 10
136.49418605340503
 20
240.93203904888685
 11
136.50571674913982
 21
240.99058331092226
  0
LINE
  8
_0-0_0
  6
CONTINUOUS
 62
    7
 10
136.50571674913982
 20
240.99058331092226
 11
136.53986344466344
 21
241.04685112658956
  0
LINE
  8
_0-0_0
  6
CONTINUOUS
 62
    7
 10
136.53986344466344
 20
241.04685112658956
 11
136.59528996493384
 21
241.09871451341382
  0
LINE
  8
_0-0_0
  6
CONTINUOUS
 62
    7
 10
136.59528996493384
 20
241.09871451341382
 11
136.66991781544053
 21
241.14416920883195
  0
LINE
  8
_0-0_0
  6
CONTINUOUS
 62
    7
 10
77.432051027143416
 20
211.10099095978205
 11
77.359056279466074
 21
211.12536378231167
  0
LINE
  8
_0-0_0
  6
CONTINUOUS
 62
    7
 10
77.359056279466074
 20
211.12536378231167
 11
77.272947221189071
 21
211.13392520017487
  0
LINE
  8
_0-0_0
  6
CONTINUOUS
 62
    7
 10
77.272947221189071
 20
211.13392520017487
 11
77.186838162912011
 21
211.12536378231167
  0
LINE
  8
_0-0_0
  6
CONTINUOUS
 62
    7
 10
77.186838162912011
 20
211.12536378231167
 11
77.113843415234641
 21
211.10099095978205
  0
LINE
  8
_0-0_0
  6
CONTINUOUS
 62
    7
 10
77.113843415234641
 20
211.10099095978205
 11
77.065073026193289
 21
211.06449358594335
  0
LINE
  8
_0-0_0
  6
CONTINUOUS
 62
    7
 10
77.065073026193289
 20
211.06449358594335
 11
77.047950190466906
 21
211.02143905680495
  0
LINE
  8
_0-0_0
  6
CONTINUOUS
 62
    7
 10
77.047950190466906
 20
211.02143905680495
 11
77.065073026193289
 21
210.97838452766635
  0
LINE
  8
_0-0_0
  6
CONTINUOUS
 62
    7
 10
77.065073026193289
 20
210.97838452766635
 11
77.113843415234641
 21
210.94188715382765
  0
LINE
  8
_0-0_0
  6
CONTINUOUS
 62
    7
 10
77.113843415234641
 20
210.94188715382765
 11
77.186838162912011
 21
210.91748958731586
  0
LINE
  8
_0-0_0
  6
CONTINUOUS
 62
    7
 10
77.186838162912011
 20
210.91748958731586
 11
77.272947221189071
 21
210.90892816945265
  0
LINE
  8
_0-0_0
  6
CONTINUOUS
 62
    7
 10
77.272947221189071
 20
210.90892816945265
 11
77.359056279466074
 21
210.91748958731586
  0
LINE
  8
_0-0_0
  6
CONTINUOUS
 62
    7
 10
77.359056279466074
 20
210.91748958731586
 11
77.432051027143416
 21
210.94188715382765
  0
LINE
  8
_0-0_0
  6
CONTINUOUS
 62
    7
 10
77.432051027143416
 20
210.94188715382765
 11
77.480821416184824
 21
210.97838452766635
  0
LINE
  8
_0-0_0
  6
CONTINUOUS
 62
    7
 10
77.480821416184824
 20
210.97838452766635
 11
77.497944251911179
 21
211.02143905680495
  0
LINE
  8
_0-0_0
  6
CONTINUOUS
 62
    7
 10
77.497944251911179
 20
211.02143905680495
 11
77.480821416184824
 21
211.06449358594335
  0
LINE
  8
_0-0_0
  6
CONTINUOUS
 62
    7
 10
77.480821416184824
 20
211.06449358594335
 11
77.432051027143416
 21
211.10099095978205
  0
LINE
  8
_0-0_0
  6
CONTINUOUS
 62
    7
 10
139.87997937846833
 20
242.48405584840111
 11
139.75041988733662
 21
242.49162750697371
  0
LINE
  8
_0-0_0
  6
CONTINUOUS
 62
    7
 10
139.75041988733662
 20
242.49162750697371
 11
139.62197387540672
 21
242.48029476309716
  0
LINE
  8
_0-0_0
  6
CONTINUOUS
 62
    7
 10
139.62197387540672
 20
242.48029476309716
 11
139.50540497496334
 21
242.45102263207934
  0
LINE
  8
_0-0_0
  6
CONTINUOUS
 62
    7
 10
139.50540497496334
 20
242.45102263207934
 11
139.41051180298274
 21
242.40626076816466
  0
LINE
  8
_0-0_0
  6
CONTINUOUS
 62
    7
 10
139.41051180298274
 20
242.40626076816466
 11
139.34531140971833
 21
242.34979500063935
  0
LINE
  8
_0-0_0
  6
CONTINUOUS
 62
    7
 10
139.34531140971833
 20
242.34979500063935
 11
139.31522272728591
 21
242.28632668613341
  0
LINE
  8
_0-0_0
  6
CONTINUOUS
 62
    7
 10
139.31522272728591
 20
242.28632668613341
 11
139.32279438585863
 21
242.22122526879821
  0
LINE
  8
_0-0_0
  6
CONTINUOUS
 62
    7
 10
139.32279438585863
 20
242.22122526879821
 11
139.36740778587972
 21
242.15993442473132
  0
LINE
  8
_0-0_0
  6
CONTINUOUS
 62
    7
 10
139.36740778587972
 20
242.15993442473132
 11
139.44530184204524
 21
242.10762564622621
  0
LINE
  8
_0-0_0
  6
CONTINUOUS
 62
    7
 10
139.44530184204524
 20
242.10762564622621
 11
139.54994414303764
 21
242.06867861814362
  0
LINE
  8
_0-0_0
  6
CONTINUOUS
 62
    7
 10
139.54994414303764
 20
242.06867861814362
 11
139.67250108718883
 21
242.04635954614173
  0
LINE
  8
_0-0_0
  6
CONTINUOUS
 62
    7
 10
139.67250108718883
 20
242.04635954614173
 11
139.80272866584173
 21
242.0425737168556
  0
LINE
  8
_0-0_0
  6
CONTINUOUS
 62
    7
 10
139.80272866584173
 20
242.0425737168556
 11
139.92964055087134
 21
242.05761805807163
  0
LINE
  8
_0-0_0
  6
CONTINUOUS
 62
    7
 10
139.92964055087134
 20
242.05761805807163
 11
140.04262157388644
 21
242.09023062669507
  0
LINE
  8
_0-0_0
  6
CONTINUOUS
 62
    7
 10
140.04262157388644
 20
242.09023062669507
 11
140.13212055773363
 21
242.13766484069424
  0
LINE
  8
_0-0_0
  6
CONTINUOUS
 62
    7
 10
140.13212055773363
 20
242.13766484069424
 11
140.19066481976904
 21
242.19593691892487
  0
LINE
  8
_0-0_0
  6
CONTINUOUS
 62
    7
 10
140.19066481976904
 20
242.19593691892487
 11
140.21333030752243
 21
242.26017229688091
  0
LINE
  8
_0-0_0
  6
CONTINUOUS
 62
    7
 10
140.21333030752243
 20
242.26017229688091
 11
140.19818699037722
 21
242.32495204244674
  0
LINE
  8
_0-0_0
  6
CONTINUOUS
 62
    7
 10
141.07164956427923
 20
242.76168332939778
 11
141.12041995332063
 21
242.79818070323643
  0
LINE
  8
_0-0_0
  6
CONTINUOUS
 62
    7
 10
141.12041995332063
 20
242.79818070323643
 11
141.13756753302923
 21
242.84123523237497
  0
LINE
  8
_0-0_0
  6
CONTINUOUS
 62
    7
 10
141.13756753302923
 20
242.84123523237497
 11
141.12041995332063
 21
242.88428976151351
  0
LINE
  8
_0-0_0
  6
CONTINUOUS
 62
    7
 10
141.12041995332063
 20
242.88428976151351
 11
141.07164956427923
 21
242.92078713535216
  0
LINE
  8
_0-0_0
  6
CONTINUOUS
 62
    7
 10
141.07164956427923
 20
242.92078713535216
 11
140.99865481660183
 21
242.94518470186404
  0
LINE
  8
_0-0_0
  6
CONTINUOUS
 62
    7
 10
140.99865481660183
 20
242.94518470186404
 11
140.91257050230703
 21
242.95374611972716
  0
LINE
  8
_0-0_0
  6
CONTINUOUS
 62
    7
 10
140.91257050230703
 20
242.95374611972716
 11
140.82646144403003
 21
242.94518470186404
  0
LINE
  8
_0-0_0
  6
CONTINUOUS
 62
    7
 10
140.82646144403003
 20
242.94518470186404
 11
140.75346669635263
 21
242.92078713535216
  0
LINE
  8
_0-0_0
  6
CONTINUOUS
 62
    7
 10
131.01307231026743
 20
237.46723818845601
 11
131.10841087392862
 21
237.52934558393747
  0
LINE
  8
_0-0_0
  6
CONTINUOUS
 62
    7
 10
131.10841087392862
 20
237.52934558393747
 11
131.16836554295324
 21
237.60172173205831
  0
LINE
  8
_0-0_0
  6
CONTINUOUS
 62
    7
 10
131.16836554295324
 20
237.60172173205831
 11
131.18880407230282
 21
237.67936834840111
  0
LINE
  8
_0-0_0
  6
CONTINUOUS
 62
    7
 10
131.18880407230282
 20
237.67936834840111
 11
131.16836554295324
 21
237.75701496474403
  0
LINE
  8
_0-0_0
  6
CONTINUOUS
 62
    7
 10
131.16836554295324
 20
237.75701496474403
 11
131.10841087392862
 21
237.82936636888269
  0
LINE
  8
_0-0_0
  6
CONTINUOUS
 62
    7
 10
131.10841087392862
 20
237.82936636888269
 11
131.01307231026743
 21
237.89149850834622
  0
LINE
  8
_0-0_0
  6
CONTINUOUS
 62
    7
 10
131.01307231026743
 20
237.89149850834622
 11
130.88880803134003
 21
237.93915541818581
  0
LINE
  8
_0-0_0
  6
CONTINUOUS
 62
    7
 10
130.88880803134003
 20
237.93915541818581
 11
130.74408047908074
 21
237.96914512468913
  0
LINE
  8
_0-0_0
  6
CONTINUOUS
 62
    7
 10
130.74408047908074
 20
237.96914512468913
 11
130.58878724639493
 21
237.97936438936404
  0
LINE
  8
_0-0_0
  6
CONTINUOUS
 62
    7
 10
130.58878724639493
 20
237.97936438936404
 11
130.43351875769133
 21
237.96914512468913
  0
LINE
  8
_0-0_0
  6
CONTINUOUS
 62
    7
 10
130.43351875769133
 20
237.96914512468913
 11
130.28879120543203
 21
237.93915541818581
  0
LINE
  8
_0-0_0
  6
CONTINUOUS
 62
    7
 10
130.28879120543203
 20
237.93915541818581
 11
130.16452692650472
 21
237.89149850834622
  0
LINE
  8
_0-0_0
  6
CONTINUOUS
 62
    7
 10
129.59885474797852
 20
237.60865004709206
 11
129.50349144033493
 21
237.54651790762841
  0
LINE
  8
_0-0_0
  6
CONTINUOUS
 62
    7
 10
129.50349144033493
 20
237.54651790762841
 11
129.44356151529271
 21
237.47416650348987
  0
LINE
  8
_0-0_0
  6
CONTINUOUS
 62
    7
 10
129.44356151529271
 20
237.47416650348987
 11
129.42312298594302
 21
237.39651988714695
  0
LINE
  8
_0-0_0
  6
CONTINUOUS
 62
    7
 10
129.42312298594302
 20
237.39651988714695
 11
129.44356151529271
 21
237.31887327080403
  0
LINE
  8
_0-0_0
  6
CONTINUOUS
 62
    7
 10
129.44356151529271
 20
237.31887327080403
 11
129.50349144033493
 21
237.2465218666656
  0
LINE
  8
_0-0_0
  6
CONTINUOUS
 62
    7
 10
129.50349144033493
 20
237.2465218666656
 11
129.59885474797852
 21
237.18438972720173
  0
LINE
  8
_0-0_0
  6
CONTINUOUS
 62
    7
 10
129.59885474797852
 20
237.18438972720173
 11
129.72311902690592
 21
237.13670807338008
  0
LINE
  8
_0-0_0
  6
CONTINUOUS
 62
    7
 10
129.72311902690592
 20
237.13670807338008
 11
129.86782183518292
 21
237.10674311085893
  0
LINE
  8
_0-0_0
  6
CONTINUOUS
 62
    7
 10
129.86782183518292
 20
237.10674311085893
 11
130.02311506786873
 21
237.09652384618414
  0
LINE
  8
_0-0_0
  6
CONTINUOUS
 62
    7
 10
130.02311506786873
 20
237.09652384618414
 11
130.17840830055454
 21
237.10674311085893
  0
LINE
  8
_0-0_0
  6
CONTINUOUS
 62
    7
 10
130.17840830055454
 20
237.10674311085893
 11
130.32311110883163
 21
237.13670807338008
  0
LINE
  8
_0-0_0
  6
CONTINUOUS
 62
    7
 10
130.32311110883163
 20
237.13670807338008
 11
130.44737538775894
 21
237.18438972720173
  0
LINE
  8
_0-0_0
  6
CONTINUOUS
 62
    7
 10
88.586638231535332
 20
216.25402424208795
 11
88.682001539178913
 21
216.31615638155145
  0
LINE
  8
_0-0_0
  6
CONTINUOUS
 62
    7
 10
88.682001539178913
 20
216.31615638155145
 11
88.741931464221153
 21
216.38850778569005
  0
LINE
  8
_0-0_0
  6
CONTINUOUS
 62
    7
 10
88.741931464221153
 20
216.38850778569005
 11
88.762394737553066
 21
216.46615440203297
  0
LINE
  8
_0-0_0
  6
CONTINUOUS
 62
    7
 10
88.762394737553066
 20
216.46615440203297
 11
88.741931464221153
 21
216.54380101837586
  0
LINE
  8
_0-0_0
  6
CONTINUOUS
 62
    7
 10
88.741931464221153
 20
216.54380101837586
 11
88.682001539178913
 21
216.61615242251426
  0
LINE
  8
_0-0_0
  6
CONTINUOUS
 62
    7
 10
88.682001539178913
 20
216.61615242251426
 11
88.586638231535332
 21
216.67828456197796
  0
LINE
  8
_0-0_0
  6
CONTINUOUS
 62
    7
 10
88.586638231535332
 20
216.67828456197796
 11
88.462373952607962
 21
216.72596621579987
  0
LINE
  8
_0-0_0
  6
CONTINUOUS
 62
    7
 10
88.462373952607962
 20
216.72596621579987
 11
88.317671144330944
 21
216.75593117832096
  0
LINE
  8
_0-0_0
  6
CONTINUOUS
 62
    7
 10
88.317671144330944
 20
216.75593117832096
 11
88.162377911645109
 21
216.76615044299575
  0
LINE
  8
_0-0_0
  6
CONTINUOUS
 62
    7
 10
88.162377911645109
 20
216.76615044299575
 11
88.007084678959316
 21
216.75593117832096
  0
LINE
  8
_0-0_0
  6
CONTINUOUS
 62
    7
 10
88.007084678959316
 20
216.75593117832096
 11
87.862381870682313
 21
216.72596621579987
  0
LINE
  8
_0-0_0
  6
CONTINUOUS
 62
    7
 10
87.862381870682313
 20
216.72596621579987
 11
87.738117591754971
 21
216.67828456197796
  0
LINE
  8
_0-0_0
  6
CONTINUOUS
 62
    7
 10
87.172445413228715
 20
216.39543610072377
 11
87.077082105585163
 21
216.33330396126016
  0
LINE
  8
_0-0_0
  6
CONTINUOUS
 62
    7
 10
87.077082105585163
 20
216.33330396126016
 11
87.017152180542951
 21
216.26095255712156
  0
LINE
  8
_0-0_0
  6
CONTINUOUS
 62
    7
 10
87.017152180542951
 20
216.26095255712156
 11
86.996688907211023
 21
216.18330594077867
  0
LINE
  8
_0-0_0
  6
CONTINUOUS
 62
    7
 10
86.996688907211023
 20
216.18330594077867
 11
87.017152180542951
 21
216.10565932443586
  0
LINE
  8
_0-0_0
  6
CONTINUOUS
 62
    7
 10
87.017152180542951
 20
216.10565932443586
 11
87.077082105585163
 21
216.03330792029735
  0
LINE
  8
_0-0_0
  6
CONTINUOUS
 62
    7
 10
87.077082105585163
 20
216.03330792029735
 11
87.172445413228715
 21
215.97117578083356
  0
LINE
  8
_0-0_0
  6
CONTINUOUS
 62
    7
 10
87.172445413228715
 20
215.97117578083356
 11
87.296709692156142
 21
215.92349412701185
  0
LINE
  8
_0-0_0
  6
CONTINUOUS
 62
    7
 10
87.296709692156142
 20
215.92349412701185
 11
87.441412500433145
 21
215.89352916449067
  0
LINE
  8
_0-0_0
  6
CONTINUOUS
 62
    7
 10
87.441412500433145
 20
215.89352916449067
 11
87.596705733118938
 21
215.88330989981586
  0
LINE
  8
_0-0_0
  6
CONTINUOUS
 62
    7
 10
87.596705733118938
 20
215.88330989981586
 11
87.751998965804773
 21
215.89352916449067
  0
LINE
  8
_0-0_0
  6
CONTINUOUS
 62
    7
 10
87.751998965804773
 20
215.89352916449067
 11
87.896701774081777
 21
215.92349412701185
  0
LINE
  8
_0-0_0
  6
CONTINUOUS
 62
    7
 10
87.896701774081777
 20
215.92349412701185
 11
88.020966053009133
 21
215.97117578083356
  0
LINE
  8
_0-0_0
  6
CONTINUOUS
 62
    7
 10
95.65772604297959
 20
220.21382846770015
 11
95.511117948068232
 21
220.27435224831675
  0
LINE
  8
_0-0_0
  6
CONTINUOUS
 62
    7
 10
95.511117948068232
 20
220.27435224831675
 11
95.344269275665383
 21
220.31990591966385
  0
LINE
  8
_0-0_0
  6
CONTINUOUS
 62
    7
 10
95.344269275665383
 20
220.31990591966385
 11
95.163168069478772
 21
220.34883163492987
  0
LINE
  8
_0-0_0
  6
CONTINUOUS
 62
    7
 10
95.163168069478772
 20
220.34883163492987
 11
94.974420972772663
 21
220.36011489084206
  0
LINE
  8
_0-0_0
  6
CONTINUOUS
 62
    7
 10
94.974420972772663
 20
220.36011489084206
 11
94.784783092705084
 21
220.35333503970176
  0
LINE
  8
_0-0_0
  6
CONTINUOUS
 62
    7
 10
94.784783092705084
 20
220.35333503970176
 11
94.601158000327572
 21
220.32873952133187
  0
LINE
  8
_0-0_0
  6
CONTINUOUS
 62
    7
 10
94.601158000327572
 20
220.32873952133187
 11
94.430152338904406
 21
220.28721911909375
  0
LINE
  8
_0-0_0
  6
CONTINUOUS
 62
    7
 10
94.430152338904406
 20
220.28721911909375
 11
94.277952104001571
 21
220.23023372794086
  0
LINE
  8
_0-0_0
  6
CONTINUOUS
 62
    7
 10
94.277952104001571
 20
220.23023372794086
 11
94.150075203663732
 21
220.15991133034797
  0
LINE
  8
_0-0_0
  6
CONTINUOUS
 62
    7
 10
94.150075203663732
 20
220.15991133034797
 11
94.051124018591921
 21
220.07875106852367
  0
LINE
  8
_0-0_0
  6
CONTINUOUS
 62
    7
 10
94.051124018591921
 20
220.07875106852367
 11
93.984686426214395
 21
219.98967273237497
  0
LINE
  8
_0-0_0
  6
CONTINUOUS
 62
    7
 10
93.984686426214395
 20
219.98967273237497
 11
93.953162592810671
 21
219.89594252756086
  0
LINE
  8
_0-0_0
  6
CONTINUOUS
 62
    7
 10
93.953162592810671
 20
219.89594252756086
 11
93.957690741564889
 21
219.80090089168667
  0
LINE
  8
_0-0_0
  6
CONTINUOUS
 62
    7
 10
93.957690741564889
 20
219.80090089168667
 11
93.998097664601218
 21
219.70801198226937
  0
LINE
  8
_0-0_0
  6
CONTINUOUS
 62
    7
 10
93.998097664601218
 20
219.70801198226937
 11
94.072923466966103
 21
219.62064098089695
  0
LINE
  8
_0-0_0
  6
CONTINUOUS
 62
    7
 10
94.072923466966103
 20
219.62064098089695
 11
94.179495798575033
 21
219.54193037331675
  0
LINE
  8
_0-0_0
  6
CONTINUOUS
 62
    7
 10
94.179495798575033
 20
219.54193037331675
 11
94.313929854212688
 21
219.47470097350677
  0
LINE
  8
_0-0_0
  6
CONTINUOUS
 62
    7
 10
94.313929854212688
 20
219.47470097350677
 11
94.471351069373171
 21
219.42142717969347
  0
LINE
  8
_0-0_0
  6
CONTINUOUS
 62
    7
 10
94.471351069373171
 20
219.42142717969347
 11
94.646117816100372
 21
219.38401427851096
  0
LINE
  8
_0-0_0
  6
CONTINUOUS
 62
    7
 10
94.646117816100372
 20
219.38401427851096
 11
94.831895634934853
 21
219.36379844500166
  0
LINE
  8
_0-0_0
  6
CONTINUOUS
 62
    7
 10
94.831895634934853
 20
219.36379844500166
 11
95.021954162700894
 21
219.36154674261576
  0
LINE
  8
_0-0_0
  6
CONTINUOUS
 62
    7
 10
95.021954162700894
 20
219.36154674261576
 11
95.209439316311517
 21
219.37730865931755
  0
LINE
  8
_0-0_0
  6
CONTINUOUS
 62
    7
 10
95.209439316311517
 20
219.37730865931755
 11
95.387546500644277
 21
219.41051508351515
  0
LINE
  8
_0-0_0
  6
CONTINUOUS
 62
    7
 10
95.387546500644277
 20
219.41051508351515
 11
95.549891768275202
 21
219.46000304804215
  0
LINE
  8
_0-0_0
  6
CONTINUOUS
 62
    7
 10
95.549891768275202
 20
219.46000304804215
 11
95.690561307443303
 21
219.52394149821117
  0
LINE
  8
_0-0_0
  6
CONTINUOUS
 62
    7
 10
95.690561307443303
 20
219.52394149821117
 11
95.804482601784485
 21
219.60002924367146
  0
LINE
  8
_0-0_0
  6
CONTINUOUS
 62
    7
 10
95.804482601784485
 20
219.60002924367146
 11
95.887572894225372
 21
219.68554444637417
  0
LINE
  8
_0-0_0
  6
CONTINUOUS
 62
    7
 10
95.887572894225372
 20
219.68554444637417
 11
95.936763930965242
 21
219.77734462057177
  0
LINE
  8
_0-0_0
  6
CONTINUOUS
 62
    7
 10
95.936763930965242
 20
219.77734462057177
 11
95.950323633245645
 21
219.87216356060557
  0
LINE
  8
_0-0_0
  6
CONTINUOUS
 62
    7
 10
95.950323633245645
 20
219.87216356060557
 11
95.927757121421322
 21
219.96656185294086
  0
LINE
  8
_0-0_0
  6
CONTINUOUS
 62
    7
 10
95.927757121421322
 20
219.96656185294086
 11
95.869880946906974
 21
220.05710008404307
  0
LINE
  8
_0-0_0
  6
CONTINUOUS
 62
    7
 10
95.869880946906974
 20
220.05710008404307
 11
95.778748860230451
 21
220.14051204825336
  0
LINE
  8
_0-0_0
  6
CONTINUOUS
 62
    7
 10
95.778748860230451
 20
220.14051204825336
 11
95.65772604297959
 21
220.21382846770015
  0
LINE
  8
_0-0_0
  6
CONTINUOUS
 62
    7
 10
64.276319001172141
 20
209.90959295777617
 11
64.279040839221153
 21
209.87715359702867
  0
LINE
  8
_0-0_0
  6
CONTINUOUS
 62
    7
 10
64.279040839221153
 20
209.87715359702867
 11
64.287082633456777
 21
209.84869801742565
  0
LINE
  8
_0-0_0
  6
CONTINUOUS
 62
    7
 10
64.287082633456777
 20
209.84869801742565
 11
64.300147456091906
 21
209.82529021020437
  0
LINE
  8
_0-0_0
  6
CONTINUOUS
 62
    7
 10
64.300147456091906
 20
209.82529021020437
 11
64.317740427481283
 21
209.80782095872627
  0
LINE
  8
_0-0_0
  6
CONTINUOUS
 62
    7
 10
64.317740427481283
 20
209.80782095872627
 11
64.339168716121492
 21
209.79700783847716
  0
LINE
  8
_0-0_0
  6
CONTINUOUS
 62
    7
 10
64.339168716121492
 20
209.79700783847716
 11
64.363615770597818
 21
209.79322200919086
  0
LINE
  8
_0-0_0
  6
CONTINUOUS
 62
    7
 10
64.363615770597818
 20
209.79322200919086
 11
64.39014131958433
 21
209.79663667874325
  0
LINE
  8
_0-0_0
  6
CONTINUOUS
 62
    7
 10
64.39014131958433
 20
209.79663667874325
 11
64.417730859808131
 21
209.80710338324067
  0
LINE
  8
_0-0_0
  6
CONTINUOUS
 62
    7
 10
142.32676332061362
 20
249.26796500169507
 11
142.32745615211704
 21
249.27608102787747
  0
LINE
  8
_0-0_0
  6
CONTINUOUS
 62
    7
 10
142.32745615211704
 20
249.27608102787747
 11
142.32946041468034
 21
249.28318255078716
  0
LINE
  8
_0-0_0
  6
CONTINUOUS
 62
    7
 10
142.32946041468034
 20
249.28318255078716
 11
142.33272662033912
 21
249.28904687458351
  0
LINE
  8
_0-0_0
  6
CONTINUOUS
 62
    7
 10
142.33272662033912
 20
249.28904687458351
 11
142.33713104918203
 21
249.29340181546195
  0
LINE
  8
_0-0_0
  6
CONTINUOUS
 62
    7
 10
142.33713104918203
 20
249.29340181546195
 11
142.34247574935094
 21
249.29609890952861
  0
LINE
  8
_0-0_0
  6
CONTINUOUS
 62
    7
 10
142.34247574935094
 20
249.29609890952861
 11
142.34858751297003
 21
249.29706392483695
  0
LINE
  8
_0-0_0
  6
CONTINUOUS
 62
    7
 10
142.34858751297003
 20
249.29706392483695
 11
142.35521890021673
 21
249.29619788545779
  0
LINE
  8
_0-0_0
  6
CONTINUOUS
 62
    7
 10
142.35521890021673
 20
249.29619788545779
 11
142.36212247126824
 21
249.29357502333778
  0
LINE
  8
_0-0_0
  6
CONTINUOUS
 62
    7
 10
145.43804690644563
 20
244.93076555859966
 11
145.49216199565592
 21
244.89053184343913
  0
LINE
  8
_0-0_0
  6
CONTINUOUS
 62
    7
 10
145.49216199565592
 20
244.89053184343913
 11
145.53803733877243
 21
244.83003280680498
  0
LINE
  8
_0-0_0
  6
CONTINUOUS
 62
    7
 10
145.53803733877243
 20
244.83003280680498
 11
145.56869513279693
 21
244.7585226980633
  0
LINE
  8
_0-0_0
  6
CONTINUOUS
 62
    7
 10
145.56869513279693
 20
244.7585226980633
 11
145.57945876508163
 21
244.6868641254282
  0
LINE
  8
_0-0_0
  6
CONTINUOUS
 62
    7
 10
145.57945876508163
 20
244.6868641254282
 11
145.56869513279693
 21
244.62596918507768
  0
LINE
  8
_0-0_0
  6
CONTINUOUS
 62
    7
 10
145.56869513279693
 20
244.62596918507768
 11
145.53803733877243
 21
244.58509212637841
  0
LINE
  8
_0-0_0
  6
CONTINUOUS
 62
    7
 10
145.53803733877243
 20
244.58509212637841
 11
145.49216199565592
 21
244.570493176843
  0
LINE
  8
_0-0_0
  6
CONTINUOUS
 62
    7
 10
145.49216199565592
 20
244.570493176843
 11
145.43804690644563
 21
244.58437455089268
  0
LINE
  8
_0-0_0
  6
CONTINUOUS
 62
    7
 10
145.43804690644563
 20
244.58437455089268
 11
145.38393181723524
 21
244.6246082660532
  0
LINE
  8
_0-0_0
  6
CONTINUOUS
 62
    7
 10
145.38393181723524
 20
244.6246082660532
 11
145.33803173013652
 21
244.68508255870518
  0
LINE
  8
_0-0_0
  6
CONTINUOUS
 62
    7
 10
145.33803173013652
 20
244.68508255870518
 11
145.30737393611193
 21
244.75661741142903
  0
LINE
  8
_0-0_0
  6
CONTINUOUS
 62
    7
 10
145.30737393611193
 20
244.75661741142903
 11
145.29661030382732
 21
244.82827598406413
  0
LINE
  8
_0-0_0
  6
CONTINUOUS
 62
    7
 10
145.29661030382732
 20
244.82827598406413
 11
145.30737393611193
 21
244.88917092441466
  0
LINE
  8
_0-0_0
  6
CONTINUOUS
 62
    7
 10
145.30737393611193
 20
244.88917092441466
 11
145.33803173013652
 21
244.93004798311392
  0
LINE
  8
_0-0_0
  6
CONTINUOUS
 62
    7
 10
145.33803173013652
 20
244.93004798311392
 11
145.38393181723524
 21
244.94464693264945
  0
LINE
  8
_0-0_0
  6
CONTINUOUS
 62
    7
 10
145.38393181723524
 20
244.94464693264945
 11
145.43804690644563
 21
244.93076555859966
  0
LINE
  8
_0-0_0
  6
CONTINUOUS
 62
    7
 10
145.31803859246753
 20
244.90921355004821
 11
145.36732860513644
 21
244.89540640794507
  0
LINE
  8
_0-0_0
  6
CONTINUOUS
 62
    7
 10
145.36732860513644
 20
244.89540640794507
 11
145.42144369434672
 21
244.85517269278466
  0
LINE
  8
_0-0_0
  6
CONTINUOUS
 62
    7
 10
145.42144369434672
 20
244.85517269278466
 11
145.46731903746334
 21
244.79469840013257
  0
LINE
  8
_0-0_0
  6
CONTINUOUS
 62
    7
 10
145.46731903746334
 20
244.79469840013257
 11
145.49797683148782
 21
244.7231635474086
  0
LINE
  8
_0-0_0
  6
CONTINUOUS
 62
    7
 10
145.49797683148782
 20
244.7231635474086
 11
145.50874046377243
 21
244.65150497477362
  0
LINE
  8
_0-0_0
  6
CONTINUOUS
 62
    7
 10
145.50874046377243
 20
244.65150497477362
 11
145.49797683148782
 21
244.59061003442321
  0
LINE
  8
_0-0_0
  6
CONTINUOUS
 62
    7
 10
145.49797683148782
 20
244.59061003442321
 11
145.48733691911454
 21
244.57056740878966
  0
LINE
  8
_0-0_0
  6
CONTINUOUS
 62
    7
 10
75.858729658900245
 20
204.11838762891216
 11
75.861451496949144
 21
204.08594826816466
  0
LINE
  8
_0-0_0
  6
CONTINUOUS
 62
    7
 10
75.861451496949144
 20
204.08594826816466
 11
75.869493291184824
 21
204.05749268856167
  0
LINE
  8
_0-0_0
  6
CONTINUOUS
 62
    7
 10
75.869493291184824
 20
204.05749268856167
 11
75.882558113819954
 21
204.03408488134036
  0
LINE
  8
_0-0_0
  6
CONTINUOUS
 62
    7
 10
75.882558113819954
 20
204.03408488134036
 11
75.90015108520933
 21
204.01664037384455
  0
LINE
  8
_0-0_0
  6
CONTINUOUS
 62
    7
 10
75.90015108520933
 20
204.01664037384455
 11
75.921579373849539
 21
204.00580250961315
  0
LINE
  8
_0-0_0
  6
CONTINUOUS
 62
    7
 10
75.921579373849539
 20
204.00580250961315
 11
75.946026428325894
 21
204.00201668032676
  0
LINE
  8
_0-0_0
  6
CONTINUOUS
 62
    7
 10
75.946026428325894
 20
204.00201668032676
 11
75.972551977312321
 21
204.00543134987916
  0
LINE
  8
_0-0_0
  6
CONTINUOUS
 62
    7
 10
75.972551977312321
 20
204.00543134987916
 11
76.000141517536179
 21
204.01589805437666
  0
LINE
  8
_0-0_0
  6
CONTINUOUS
 62
    7
 10
140.20509056142873
 20
242.31000667715966
 11
140.19066481976904
 21
242.28254085684716
  0
LINE
  8
_0-0_0
  6
CONTINUOUS
 62
    7
 10
140.19066481976904
 20
242.28254085684716
 11
140.13212055773363
 21
242.22426877861653
  0
LINE
  8
_0-0_0
  6
CONTINUOUS
 62
    7
 10
140.13212055773363
 20
242.22426877861653
 11
140.04262157388644
 21
242.17680982063507
  0
LINE
  8
_0-0_0
  6
CONTINUOUS
 62
    7
 10
140.04262157388644
 20
242.17680982063507
 11
139.92964055087134
 21
242.14422199599403
  0
LINE
  8
_0-0_0
  6
CONTINUOUS
 62
    7
 10
139.92964055087134
 20
242.14422199599403
 11
139.80272866584173
 21
242.12917765477789
  0
LINE
  8
_0-0_0
  6
CONTINUOUS
 62
    7
 10
139.80272866584173
 20
242.12917765477789
 11
139.67250108718883
 21
242.13296348406413
  0
LINE
  8
_0-0_0
  6
CONTINUOUS
 62
    7
 10
139.67250108718883
 20
242.13296348406413
 11
139.54994414303764
 21
242.15528255606591
  0
LINE
  8
_0-0_0
  6
CONTINUOUS
 62
    7
 10
139.54994414303764
 20
242.15528255606591
 11
139.44530184204524
 21
242.19420484016621
  0
LINE
  8
_0-0_0
  6
CONTINUOUS
 62
    7
 10
139.44530184204524
 20
242.19420484016621
 11
139.36740778587972
 21
242.24653836265361
  0
LINE
  8
_0-0_0
  6
CONTINUOUS
 62
    7
 10
139.36740778587972
 20
242.24653836265361
 11
139.32279438585863
 21
242.30780446273809
  0
LINE
  8
_0-0_0
  6
CONTINUOUS
 62
    7
 10
139.32279438585863
 20
242.30780446273809
 11
139.32192834647933
 21
242.31000667715966
  0
LINE
  8
_0-0_0
  6
CONTINUOUS
 62
    7
 10
130.44737538775894
 20
237.27099366512414
 11
130.32311110883163
 21
237.22331201130237
  0
LINE
  8
_0-0_0
  6
CONTINUOUS
 62
    7
 10
130.32311110883163
 20
237.22331201130237
 11
130.17840830055454
 21
237.19334704878122
  0
LINE
  8
_0-0_0
  6
CONTINUOUS
 62
    7
 10
130.17840830055454
 20
237.19334704878122
 11
130.02311506786873
 21
237.18312778410632
  0
LINE
  8
_0-0_0
  6
CONTINUOUS
 62
    7
 10
130.02311506786873
 20
237.18312778410632
 11
129.86782183518292
 21
237.19334704878122
  0
LINE
  8
_0-0_0
  6
CONTINUOUS
 62
    7
 10
129.86782183518292
 20
237.19334704878122
 11
129.72311902690592
 21
237.22331201130237
  0
LINE
  8
_0-0_0
  6
CONTINUOUS
 62
    7
 10
129.72311902690592
 20
237.22331201130237
 11
129.59885474797852
 21
237.27099366512414
  0
LINE
  8
_0-0_0
  6
CONTINUOUS
 62
    7
 10
129.59885474797852
 20
237.27099366512414
 11
129.50349144033493
 21
237.33312580458789
  0
LINE
  8
_0-0_0
  6
CONTINUOUS
 62
    7
 10
129.50349144033493
 20
237.33312580458789
 11
129.44356151529271
 21
237.40547720872621
  0
LINE
  8
_0-0_0
  6
CONTINUOUS
 62
    7
 10
129.44356151529271
 20
237.40547720872621
 11
129.42940795743803
 21
237.4398218561081
  0
LINE
  8
_0-0_0
  6
CONTINUOUS
 62
    7
 10
110.38985387699033
 20
226.97462674155994
 11
110.36508515074453
 21
226.88455864612067
  0
LINE
  8
_0-0_0
  6
CONTINUOUS
 62
    7
 10
110.36508515074453
 20
226.88455864612067
 11
110.30381905066012
 21
226.78164842388685
  0
LINE
  8
_0-0_0
  6
CONTINUOUS
 62
    7
 10
110.30381905066012
 20
226.78164842388685
 11
110.20951973425383
 21
226.68522112500585
  0
LINE
  8
_0-0_0
  6
CONTINUOUS
 62
    7
 10
110.20951973425383
 20
226.68522112500585
 11
110.08476057568123
 21
226.59785012363346
  0
LINE
  8
_0-0_0
  6
CONTINUOUS
 62
    7
 10
110.08476057568123
 20
226.59785012363346
 11
109.93293150051232
 21
226.52193558604895
  0
LINE
  8
_0-0_0
  6
CONTINUOUS
 62
    7
 10
109.93293150051232
 20
226.52193558604895
 11
109.75821424174963
 21
226.45955600676265
  0
LINE
  8
_0-0_0
  6
CONTINUOUS
 62
    7
 10
109.75821424174963
 20
226.45955600676265
 11
109.56531015602323
 21
226.41239397656847
  0
LINE
  8
_0-0_0
  6
CONTINUOUS
 62
    7
 10
109.56531015602323
 20
226.41239397656847
 11
109.35953919951993
 21
226.38176092652617
  0
LINE
  8
_0-0_0
  6
CONTINUOUS
 62
    7
 10
109.35953919951993
 20
226.38176092652617
 11
109.14646876824882
 21
226.36849815203297
  0
LINE
  8
_0-0_0
  6
CONTINUOUS
 62
    7
 10
109.14646876824882
 20
226.36849815203297
 11
108.93196318600633
 21
226.37292732485815
  0
LINE
  8
_0-0_0
  6
CONTINUOUS
 62
    7
 10
108.93196318600633
 20
226.37292732485815
 11
108.72181254464233
 21
226.39494946907266
  0
LINE
  8
_0-0_0
  6
CONTINUOUS
 62
    7
 10
108.72181254464233
 20
226.39494946907266
 11
108.52180693600643
 21
226.43399547308437
  0
LINE
  8
_0-0_0
  6
CONTINUOUS
 62
    7
 10
108.52180693600643
 20
226.43399547308437
 11
108.33736529221413
 21
226.48892711370937
  0
LINE
  8
_0-0_0
  6
CONTINUOUS
 62
    7
 10
108.33736529221413
 20
226.48892711370937
 11
108.17351064166513
 21
226.55830923997635
  0
LINE
  8
_0-0_0
  6
CONTINUOUS
 62
    7
 10
95.946859475728772
 20
219.90356367409797
 11
95.916548097455944
 21
219.81745461582096
  0
LINE
  8
_0-0_0
  6
CONTINUOUS
 62
    7
 10
95.916548097455944
 20
219.81745461582096
 11
95.850110505078391
 21
219.72840102365456
  0
LINE
  8
_0-0_0
  6
CONTINUOUS
 62
    7
 10
95.850110505078391
 20
219.72840102365456
 11
95.751159320006593
 21
219.64724076183026
  0
LINE
  8
_0-0_0
  6
CONTINUOUS
 62
    7
 10
95.751159320006593
 20
219.64724076183026
 11
95.623282419668755
 21
219.57689362025505
  0
LINE
  8
_0-0_0
  6
CONTINUOUS
 62
    7
 10
95.623282419668755
 20
219.57689362025505
 11
95.471082184765933
 21
219.51993297308445
  0
LINE
  8
_0-0_0
  6
CONTINUOUS
 62
    7
 10
95.471082184765933
 20
219.51993297308445
 11
95.300076523342767
 21
219.47838782686395
  0
LINE
  8
_0-0_0
  6
CONTINUOUS
 62
    7
 10
95.300076523342767
 20
219.47838782686395
 11
95.116451430965242
 21
219.45379230849406
  0
LINE
  8
_0-0_0
  6
CONTINUOUS
 62
    7
 10
95.116451430965242
 20
219.45379230849406
 11
94.926813550897663
 21
219.44701245735385
  0
LINE
  8
_0-0_0
  6
CONTINUOUS
 62
    7
 10
94.926813550897663
 20
219.44701245735385
 11
94.738041710209316
 21
219.45829571326607
  0
LINE
  8
_0-0_0
  6
CONTINUOUS
 62
    7
 10
94.738041710209316
 20
219.45829571326607
 11
94.556965248004971
 21
219.48724617251426
  0
LINE
  8
_0-0_0
  6
CONTINUOUS
 62
    7
 10
94.556965248004971
 20
219.48724617251426
 11
94.390091831619813
 21
219.53279984386145
  0
LINE
  8
_0-0_0
  6
CONTINUOUS
 62
    7
 10
94.390091831619813
 20
219.53279984386145
 11
94.24350848069075
 21
219.59332362447796
  0
LINE
  8
_0-0_0
  6
CONTINUOUS
 62
    7
 10
88.020966053009133
 20
216.05777971875585
 11
87.896701774081777
 21
216.01009806493406
  0
LINE
  8
_0-0_0
  6
CONTINUOUS
 62
    7
 10
87.896701774081777
 20
216.01009806493406
 11
87.751998965804773
 21
215.98013310241296
  0
LINE
  8
_0-0_0
  6
CONTINUOUS
 62
    7
 10
87.751998965804773
 20
215.98013310241296
 11
87.596705733118938
 21
215.96991383773815
  0
LINE
  8
_0-0_0
  6
CONTINUOUS
 62
    7
 10
87.596705733118938
 20
215.96991383773815
 11
87.441412500433145
 21
215.98013310241296
  0
LINE
  8
_0-0_0
  6
CONTINUOUS
 62
    7
 10
87.441412500433145
 20
215.98013310241296
 11
87.296709692156142
 21
216.01009806493406
  0
LINE
  8
_0-0_0
  6
CONTINUOUS
 62
    7
 10
87.296709692156142
 20
216.01009806493406
 11
87.172445413228715
 21
216.05777971875585
  0
LINE
  8
_0-0_0
  6
CONTINUOUS
 62
    7
 10
87.172445413228715
 20
216.05777971875585
 11
87.077082105585163
 21
216.11991185821955
  0
LINE
  8
_0-0_0
  6
CONTINUOUS
 62
    7
 10
87.077082105585163
 20
216.11991185821955
 11
87.017152180542951
 21
216.19226326235815
  0
LINE
  8
_0-0_0
  6
CONTINUOUS
 62
    7
 10
87.017152180542951
 20
216.19226326235815
 11
87.002973878705944
 21
216.22660790973976
  0
LINE
  8
_0-0_0
  6
CONTINUOUS
 62
    7
 10
72.888882675686489
 20
203.12845513049575
 11
72.845531218760811
 21
203.16089449124325
  0
LINE
  8
_0-0_0
  6
CONTINUOUS
 62
    7
 10
72.845531218760811
 20
203.16089449124325
 11
72.830288925686489
 21
203.19914868782266
  0
LINE
  8
_0-0_0
  6
CONTINUOUS
 62
    7
 10
72.830288925686489
 20
203.19914868782266
 11
72.845531218760811
 21
203.23742762838427
  0
LINE
  8
_0-0_0
  6
CONTINUOUS
 62
    7
 10
72.845531218760811
 20
203.23742762838427
 11
72.888882675686489
 21
203.26986698913177
  0
LINE
  8
_0-0_0
  6
CONTINUOUS
 62
    7
 10
72.888882675686489
 20
203.26986698913177
 11
72.953761397181466
 21
203.29154271759455
  0
LINE
  8
_0-0_0
  6
CONTINUOUS
 62
    7
 10
72.953761397181466
 20
203.29154271759455
 11
73.030294534322536
 21
203.29916386413177
  0
LINE
  8
_0-0_0
  6
CONTINUOUS
 62
    7
 10
73.030294534322536
 20
203.29916386413177
 11
73.106827671463549
 21
203.29154271759455
  0
LINE
  8
_0-0_0
  6
CONTINUOUS
 62
    7
 10
73.106827671463549
 20
203.29154271759455
 11
73.171731136940707
 21
203.26986698913177
  0
LINE
  8
_0-0_0
  6
CONTINUOUS
 62
    7
 10
73.171731136940707
 20
203.26986698913177
 11
73.215082593866441
 21
203.23742762838427
  0
LINE
  8
_0-0_0
  6
CONTINUOUS
 62
    7
 10
73.215082593866441
 20
203.23742762838427
 11
73.230300142958498
 21
203.19914868782266
  0
LINE
  8
_0-0_0
  6
CONTINUOUS
 62
    7
 10
73.230300142958498
 20
203.19914868782266
 11
73.215082593866441
 21
203.16089449124325
  0
LINE
  8
_0-0_0
  6
CONTINUOUS
 62
    7
 10
73.215082593866441
 20
203.16089449124325
 11
73.171731136940707
 21
203.12845513049575
  0
LINE
  8
_0-0_0
  6
CONTINUOUS
 62
    7
 10
73.171731136940707
 20
203.12845513049575
 11
73.106827671463549
 21
203.10675465805065
  0
LINE
  8
_0-0_0
  6
CONTINUOUS
 62
    7
 10
73.106827671463549
 20
203.10675465805065
 11
73.030294534322536
 21
203.09915825549575
  0
LINE
  8
_0-0_0
  6
CONTINUOUS
 62
    7
 10
73.030294534322536
 20
203.09915825549575
 11
72.953761397181466
 21
203.10675465805065
  0
LINE
  8
_0-0_0
  6
CONTINUOUS
 62
    7
 10
72.953761397181466
 20
203.10675465805065
 11
72.888882675686489
 21
203.12845513049575
  0
LINE
  8
_0-0_0
  6
CONTINUOUS
 62
    7
 10
62.635842465065764
 20
208.53781132506927
 11
62.679193921991413
 21
208.50537196432177
  0
LINE
  8
_0-0_0
  6
CONTINUOUS
 62
    7
 10
62.679193921991413
 20
208.50537196432177
 11
62.69441147108347
 21
208.46709302376016
  0
LINE
  8
_0-0_0
  6
CONTINUOUS
 62
    7
 10
62.69441147108347
 20
208.46709302376016
 11
62.679193921991413
 21
208.42883882718067
  0
LINE
  8
_0-0_0
  6
CONTINUOUS
 62
    7
 10
62.679193921991413
 20
208.42883882718067
 11
62.635842465065764
 21
208.39639946643325
  0
LINE
  8
_0-0_0
  6
CONTINUOUS
 62
    7
 10
62.635842465065764
 20
208.39639946643325
 11
62.570938999588577
 21
208.37469899398815
  0
LINE
  8
_0-0_0
  6
CONTINUOUS
 62
    7
 10
62.570938999588577
 20
208.37469899398815
 11
62.494405862447508
 21
208.36710259143325
  0
LINE
  8
_0-0_0
  6
CONTINUOUS
 62
    7
 10
62.494405862447508
 20
208.36710259143325
 11
62.417872725306466
 21
208.37469899398815
  0
LINE
  8
_0-0_0
  6
CONTINUOUS
 62
    7
 10
62.417872725306466
 20
208.37469899398815
 11
62.352994003811517
 21
208.39639946643325
  0
LINE
  8
_0-0_0
  6
CONTINUOUS
 62
    7
 10
62.352994003811517
 20
208.39639946643325
 11
62.30964254688584
 21
208.42883882718067
  0
LINE
  8
_0-0_0
  6
CONTINUOUS
 62
    7
 10
62.30964254688584
 20
208.42883882718067
 11
62.294400253811517
 21
208.46709302376016
  0
LINE
  8
_0-0_0
  6
CONTINUOUS
 62
    7
 10
62.294400253811517
 20
208.46709302376016
 11
62.30964254688584
 21
208.50537196432177
  0
LINE
  8
_0-0_0
  6
CONTINUOUS
 62
    7
 10
62.30964254688584
 20
208.50537196432177
 11
62.352994003811517
 21
208.53781132506927
  0
LINE
  8
_0-0_0
  6
CONTINUOUS
 62
    7
 10
62.352994003811517
 20
208.53781132506927
 11
62.417872725306466
 21
208.55948705353205
  0
LINE
  8
_0-0_0
  6
CONTINUOUS
 62
    7
 10
62.417872725306466
 20
208.55948705353205
 11
62.494405862447508
 21
208.56710820006927
  0
LINE
  8
_0-0_0
  6
CONTINUOUS
 62
    7
 10
62.494405862447508
 20
208.56710820006927
 11
62.570938999588577
 21
208.55948705353205
  0
LINE
  8
_0-0_0
  6
CONTINUOUS
 62
    7
 10
62.570938999588577
 20
208.55948705353205
 11
62.635842465065764
 21
208.53781132506927
  0
LINE
  8
_0-0_0
  6
CONTINUOUS
 62
    7
 10
72.818164374377375
 20
208.62085212954557
 11
72.76404928516709
 21
208.63470875961315
  0
LINE
  8
_0-0_0
  6
CONTINUOUS
 62
    7
 10
72.76404928516709
 20
208.63470875961315
 11
72.718173942050527
 21
208.62010981007765
  0
LINE
  8
_0-0_0
  6
CONTINUOUS
 62
    7
 10
72.718173942050527
 20
208.62010981007765
 11
72.687516148026049
 21
208.57925749536065
  0
LINE
  8
_0-0_0
  6
CONTINUOUS
 62
    7
 10
72.687516148026049
 20
208.57925749536065
 11
72.676752515741384
 21
208.51833781102786
  0
LINE
  8
_0-0_0
  6
CONTINUOUS
 62
    7
 10
72.676752515741384
 20
208.51833781102786
 11
72.687516148026049
 21
208.44667923839276
  0
LINE
  8
_0-0_0
  6
CONTINUOUS
 62
    7
 10
72.687516148026049
 20
208.44667923839276
 11
72.718173942050527
 21
208.37516912965117
  0
LINE
  8
_0-0_0
  6
CONTINUOUS
 62
    7
 10
72.718173942050527
 20
208.37516912965117
 11
72.76404928516709
 21
208.31467009301687
  0
LINE
  8
_0-0_0
  6
CONTINUOUS
 62
    7
 10
72.76404928516709
 20
208.31467009301687
 11
72.818164374377375
 21
208.27443637785635
  0
LINE
  8
_0-0_0
  6
CONTINUOUS
 62
    7
 10
72.818164374377375
 20
208.27443637785635
 11
72.872279463587745
 21
208.26055500380656
  0
LINE
  8
_0-0_0
  6
CONTINUOUS
 62
    7
 10
72.872279463587745
 20
208.26055500380656
 11
72.918179550686489
 21
208.27515395334206
  0
LINE
  8
_0-0_0
  6
CONTINUOUS
 62
    7
 10
72.918179550686489
 20
208.27515395334206
 11
72.948837344710967
 21
208.31603101204135
  0
LINE
  8
_0-0_0
  6
CONTINUOUS
 62
    7
 10
72.948837344710967
 20
208.31603101204135
 11
72.959600976995603
 21
208.37692595239187
  0
LINE
  8
_0-0_0
  6
CONTINUOUS
 62
    7
 10
72.959600976995603
 20
208.37692595239187
 11
72.948837344710967
 21
208.44858452502694
  0
LINE
  8
_0-0_0
  6
CONTINUOUS
 62
    7
 10
72.948837344710967
 20
208.44858452502694
 11
72.918179550686489
 21
208.52011937775086
  0
LINE
  8
_0-0_0
  6
CONTINUOUS
 62
    7
 10
72.918179550686489
 20
208.52011937775086
 11
72.872279463587745
 21
208.58059367040286
  0
LINE
  8
_0-0_0
  6
CONTINUOUS
 62
    7
 10
72.872279463587745
 20
208.58059367040286
 11
72.818164374377375
 21
208.62085212954557
  0
LINE
  8
_0-0_0
  6
CONTINUOUS
 62
    7
 10
72.393904054487166
 20
208.90011271337156
 11
72.400807625538732
 21
208.90273557549145
  0
LINE
  8
_0-0_0
  6
CONTINUOUS
 62
    7
 10
72.400807625538732
 20
208.90273557549145
 11
72.407439012785346
 21
208.90357687088857
  0
LINE
  8
_0-0_0
  6
CONTINUOUS
 62
    7
 10
72.407439012785346
 20
208.90357687088857
 11
72.413550776404406
 21
208.90263659956247
  0
LINE
  8
_0-0_0
  6
CONTINUOUS
 62
    7
 10
72.413550776404406
 20
208.90263659956247
 11
72.41889547657334
 21
208.89993950549575
  0
LINE
  8
_0-0_0
  6
CONTINUOUS
 62
    7
 10
72.41889547657334
 20
208.89993950549575
 11
72.423299905416286
 21
208.89555982063516
  0
LINE
  8
_0-0_0
  6
CONTINUOUS
 62
    7
 10
72.423299905416286
 20
208.89555982063516
 11
72.426566111075033
 21
208.88972024082096
  0
LINE
  8
_0-0_0
  6
CONTINUOUS
 62
    7
 10
72.426566111075033
 20
208.88972024082096
 11
72.428570373638394
 21
208.88259397392906
  0
LINE
  8
_0-0_0
  6
CONTINUOUS
 62
    7
 10
72.428570373638394
 20
208.88259397392906
 11
72.429263205141751
 21
208.87447794774667
  0
LINE
  8
_0-0_0
  6
CONTINUOUS
 62
    7
 10
72.499981506450894
 20
208.95313906736226
 11
72.498620587426387
 21
208.96937111972716
  0
LINE
  8
_0-0_0
  6
CONTINUOUS
 62
    7
 10
72.498620587426387
 20
208.96937111972716
 11
72.494587318317429
 21
208.98359890952875
  0
LINE
  8
_0-0_0
  6
CONTINUOUS
 62
    7
 10
72.494587318317429
 20
208.98359890952875
 11
72.488054906999821
 21
208.99530281313935
  0
LINE
  8
_0-0_0
  6
CONTINUOUS
 62
    7
 10
72.488054906999821
 20
208.99530281313935
 11
72.479270793296308
 21
209.00403743887836
  0
LINE
  8
_0-0_0
  6
CONTINUOUS
 62
    7
 10
72.479270793296308
 20
209.00403743887836
 11
72.468556648976175
 21
209.00943162701185
  0
LINE
  8
_0-0_0
  6
CONTINUOUS
 62
    7
 10
72.468556648976175
 20
209.00943162701185
 11
72.456308377755789
 21
209.01133691364615
  0
LINE
  8
_0-0_0
  6
CONTINUOUS
 62
    7
 10
72.456308377755789
 20
209.01133691364615
 11
72.443045603262533
 21
209.00962957886986
  0
LINE
  8
_0-0_0
  6
CONTINUOUS
 62
    7
 10
72.443045603262533
 20
209.00962957886986
 11
72.429263205141751
 21
209.00438385463005
  0
LINE
  8
_0-0_0
  6
CONTINUOUS
 62
    7
 10
72.698156060399356
 20
208.59927537701185
 11
72.747446073068289
 21
208.58549297889095
  0
LINE
  8
_0-0_0
  6
CONTINUOUS
 62
    7
 10
72.747446073068289
 20
208.58549297889095
 11
72.801585906260811
 21
208.54523451974825
  0
LINE
  8
_0-0_0
  6
CONTINUOUS
 62
    7
 10
72.801585906260811
 20
208.54523451974825
 11
72.847461249377375
 21
208.48476022709625
  0
LINE
  8
_0-0_0
  6
CONTINUOUS
 62
    7
 10
72.847461249377375
 20
208.48476022709625
 11
72.878119043401853
 21
208.41322537437244
  0
LINE
  8
_0-0_0
  6
CONTINUOUS
 62
    7
 10
72.878119043401853
 20
208.41322537437244
 11
72.888882675686489
 21
208.34156680173737
  0
LINE
  8
_0-0_0
  6
CONTINUOUS
 62
    7
 10
72.888882675686489
 20
208.34156680173737
 11
72.878119043401853
 21
208.28067186138685
  0
LINE
  8
_0-0_0
  6
CONTINUOUS
 62
    7
 10
72.878119043401853
 20
208.28067186138685
 11
72.867479131028574
 21
208.26065397973565
  0
LINE
  8
_0-0_0
  6
CONTINUOUS
 62
    7
 10
155.58082793210014
 20
209.23596278463427
 11
155.69257175600222
 21
209.23913001436406
  0
LINE
  8
_0-0_0
  6
CONTINUOUS
 62
    7
 10
155.69257175600222
 20
209.23913001436406
 11
155.80030705477753
 21
209.22398669721875
  0
LINE
  8
_0-0_0
  6
CONTINUOUS
 62
    7
 10
155.80030705477753
 20
209.22398669721875
 11
155.89240415676232
 21
209.19219068001016
  0
LINE
  8
_0-0_0
  6
CONTINUOUS
 62
    7
 10
155.89240415676232
 20
209.19219068001016
 11
155.95884174913982
 21
209.14715663229055
  0
LINE
  8
_0-0_0
  6
CONTINUOUS
 62
    7
 10
155.95884174913982
 20
209.14715663229055
 11
155.99244407705362
 21
209.09378386254815
  0
LINE
  8
_0-0_0
  6
CONTINUOUS
 62
    7
 10
155.99244407705362
 20
209.09378386254815
 11
155.99573502669472
 21
209.07017810346875
  0
LINE
  8
_0-0_0
  6
CONTINUOUS
 62
    7
 10
155.31574565011113
 20
209.06998015161065
 11
155.31584462604013
 21
209.07453304434716
  0
LINE
  8
_0-0_0
  6
CONTINUOUS
 62
    7
 10
155.31584462604013
 20
209.07453304434716
 11
155.33712445078683
 21
209.12946468497216
  0
LINE
  8
_0-0_0
  6
CONTINUOUS
 62
    7
 10
155.33712445078683
 20
209.12946468497216
 11
155.39292213079102
 21
209.17798763419086
  0
LINE
  8
_0-0_0
  6
CONTINUOUS
 62
    7
 10
155.39292213079102
 20
209.17798763419086
 11
155.47720013438052
 21
209.21480667979895
  0
LINE
  8
_0-0_0
  6
CONTINUOUS
 62
    7
 10
155.47720013438052
 20
209.21480667979895
 11
155.58082793210014
 21
209.23596278463427
  0
LINE
  8
_0-0_0
  6
CONTINUOUS
 62
    7
 10
73.370301594605422
 20
167.75741499245737
 11
73.357632675686489
 21
167.80338931150297
  0
LINE
  8
_0-0_0
  6
CONTINUOUS
 62
    7
 10
73.357632675686489
 20
167.80338931150297
 11
73.310025253811489
 21
167.85404024319627
  0
LINE
  8
_0-0_0
  6
CONTINUOUS
 62
    7
 10
73.310025253811489
 20
167.85404024319627
 11
73.232131197645998
 21
167.89421209840117
  0
LINE
  8
_0-0_0
  6
CONTINUOUS
 62
    7
 10
73.232131197645998
 20
167.89421209840117
 11
73.132338717177248
 21
167.91957468022125
  0
LINE
  8
_0-0_0
  6
CONTINUOUS
 62
    7
 10
73.132338717177248
 20
167.91957468022125
 11
73.021510420618995
 21
167.92735666264306
  0
LINE
  8
_0-0_0
  6
CONTINUOUS
 62
    7
 10
73.021510420618995
 20
167.92735666264306
 11
72.911622395386644
 21
167.91671675026987
  0
LINE
  8
_0-0_0
  6
CONTINUOUS
 62
    7
 10
72.911622395386644
 20
167.91671675026987
 11
72.814601240931466
 21
167.88881791026765
  0
LINE
  8
_0-0_0
  6
CONTINUOUS
 62
    7
 10
72.814601240931466
 20
167.88881791026765
 11
72.740963149715242
 21
167.84667890847297
  0
LINE
  8
_0-0_0
  6
CONTINUOUS
 62
    7
 10
72.740963149715242
 20
167.84667890847297
 11
72.698650940044644
 21
167.79486500961315
  0
LINE
  8
_0-0_0
  6
CONTINUOUS
 62
    7
 10
145.49520550547433
 20
214.32077690783944
 11
145.49320124291091
 21
214.33881527090966
  0
LINE
  8
_0-0_0
  6
CONTINUOUS
 62
    7
 10
145.49320124291091
 20
214.33881527090966
 11
145.46293935260263
 21
214.39268292029735
  0
LINE
  8
_0-0_0
  6
CONTINUOUS
 62
    7
 10
145.46293935260263
 20
214.39268292029735
 11
145.39929783022092
 21
214.43873147128966
  0
LINE
  8
_0-0_0
  6
CONTINUOUS
 62
    7
 10
145.39929783022092
 20
214.43873147128966
 11
145.30922973478172
 21
214.47196263946955
  0
LINE
  8
_0-0_0
  6
CONTINUOUS
 62
    7
 10
145.30922973478172
 20
214.47196263946955
 11
145.20248419529693
 21
214.48876380342656
  0
LINE
  8
_0-0_0
  6
CONTINUOUS
 62
    7
 10
145.20248419529693
 20
214.48876380342656
 11
145.09059190750133
 21
214.48730390847297
  0
LINE
  8
_0-0_0
  6
CONTINUOUS
 62
    7
 10
145.09059190750133
 20
214.48730390847297
 11
144.98570216668634
 21
214.46778090646706
  0
LINE
  8
_0-0_0
  6
CONTINUOUS
 62
    7
 10
144.98570216668634
 20
214.46778090646706
 11
144.89917246071082
 21
214.43227329191896
  0
LINE
  8
_0-0_0
  6
CONTINUOUS
 62
    7
 10
144.89917246071082
 20
214.43227329191896
 11
144.84040550283493
 21
214.38464112606167
  0
LINE
  8
_0-0_0
  6
CONTINUOUS
 62
    7
 10
144.84040550283493
 20
214.38464112606167
 11
144.81573575251824
 21
214.33005590118825
  0
LINE
  8
_0-0_0
  6
CONTINUOUS
 62
    7
 10
144.81573575251824
 20
214.33005590118825
 11
144.81519138490842
 21
214.32040574810557
  0
LINE
  8
_0-0_0
  6
CONTINUOUS
 62
    7
 10
62.189757952819122
 20
173.00761789311187
 11
62.195968692367245
 21
173.03998302191255
  0
LINE
  8
_0-0_0
  6
CONTINUOUS
 62
    7
 10
62.195968692367245
 20
173.03998302191255
 11
62.235039440361362
 21
173.09242789232005
  0
LINE
  8
_0-0_0
  6
CONTINUOUS
 62
    7
 10
62.235039440361362
 20
173.09242789232005
 11
62.306029925475372
 21
173.13568037331666
  0
LINE
  8
_0-0_0
  6
CONTINUOUS
 62
    7
 10
62.306029925475372
 20
173.13568037331666
 11
62.401294257189903
 21
173.16507622424575
  0
LINE
  8
_0-0_0
  6
CONTINUOUS
 62
    7
 10
62.401294257189903
 20
173.16507622424575
 11
62.510464706936517
 21
173.17739872741305
  0
LINE
  8
_0-0_0
  6
CONTINUOUS
 62
    7
 10
62.510464706936517
 20
173.17739872741305
 11
62.621713651193289
 21
173.17133645175846
  0
LINE
  8
_0-0_0
  6
CONTINUOUS
 62
    7
 10
62.621713651193289
 20
173.17133645175846
 11
62.723015514580112
 21
173.14754511281205
  0
LINE
  8
_0-0_0
  6
CONTINUOUS
 62
    7
 10
62.723015514580112
 20
173.14754511281205
 11
62.803383968972014
 21
173.10858571273815
  0
LINE
  8
_0-0_0
  6
CONTINUOUS
 62
    7
 10
62.803383968972014
 20
173.10858571273815
 11
62.854084388629929
 21
173.05870184449495
  0
LINE
  8
_0-0_0
  6
CONTINUOUS
 62
    7
 10
62.854084388629929
 20
173.05870184449495
 11
62.869772073385008
 21
173.00781584496997
  0
LINE
  8
_0-0_0
  6
CONTINUOUS
 62
    7
 10
73.480090643908653
 20
184.67684281261145
 11
73.479150372582637
 21
184.66783600306755
  0
LINE
  8
_0-0_0
  6
CONTINUOUS
 62
    7
 10
73.479150372582637
 20
184.66783600306755
 11
73.451931992092739
 21
184.60523372794086
  0
LINE
  8
_0-0_0
  6
CONTINUOUS
 62
    7
 10
73.451931992092739
 20
184.60523372794086
 11
73.390542172096985
 21
184.54904014422036
  0
LINE
  8
_0-0_0
  6
CONTINUOUS
 62
    7
 10
73.390542172096985
 20
184.54904014422036
 11
73.299979197012533
 21
184.50375865667817
  0
LINE
  8
_0-0_0
  6
CONTINUOUS
 62
    7
 10
73.299979197012533
 20
184.50375865667817
 11
73.187567285589353
 21
184.47305137468916
  0
LINE
  8
_0-0_0
  6
CONTINUOUS
 62
    7
 10
73.187567285589353
 20
184.47305137468916
 11
73.062412223300527
 21
184.45944218444427
  0
LINE
  8
_0-0_0
  6
CONTINUOUS
 62
    7
 10
73.062412223300527
 20
184.45944218444427
 11
72.934634298891751
 21
184.46401982116305
  0
LINE
  8
_0-0_0
  6
CONTINUOUS
 62
    7
 10
72.934634298891751
 20
184.46401982116305
 11
72.814650728895998
 21
184.48638838112916
  0
LINE
  8
_0-0_0
  6
CONTINUOUS
 62
    7
 10
72.814650728895998
 20
184.48638838112916
 11
72.712111666395998
 21
184.52476629761995
  0
LINE
  8
_0-0_0
  6
CONTINUOUS
 62
    7
 10
145.60519250663563
 20
231.248778517848
 11
145.60405428345152
 21
231.23081438672466
  0
LINE
  8
_0-0_0
  6
CONTINUOUS
 62
    7
 10
145.60405428345152
 20
231.23081438672466
 11
145.57683590296162
 21
231.16823685558018
  0
LINE
  8
_0-0_0
  6
CONTINUOUS
 62
    7
 10
145.57683590296162
 20
231.16823685558018
 11
145.51544608296584
 21
231.11204327185976
  0
LINE
  8
_0-0_0
  6
CONTINUOUS
 62
    7
 10
145.51544608296584
 20
231.11204327185976
 11
145.42488310788141
 21
231.0667370403354
  0
LINE
  8
_0-0_0
  6
CONTINUOUS
 62
    7
 10
145.42488310788141
 20
231.0667370403354
 11
145.31244645247602
 21
231.03605450232851
  0
LINE
  8
_0-0_0
  6
CONTINUOUS
 62
    7
 10
145.31244645247602
 20
231.03605450232851
 11
145.18729139018703
 21
231.02244531208351
  0
LINE
  8
_0-0_0
  6
CONTINUOUS
 62
    7
 10
145.18729139018703
 20
231.02244531208351
 11
145.05953820976063
 21
231.02702294880237
  0
LINE
  8
_0-0_0
  6
CONTINUOUS
 62
    7
 10
145.05953820976063
 20
231.02702294880237
 11
144.93952989578253
 21
231.04939150876851
  0
LINE
  8
_0-0_0
  6
CONTINUOUS
 62
    7
 10
144.93952989578253
 20
231.04939150876851
 11
144.83699083328253
 21
231.08776942525924
  0
LINE
  8
_0-0_0
  6
CONTINUOUS
 62
    7
 10
144.83699083328253
 20
231.08776942525924
 11
144.76023500030112
 21
231.13903895650924
  0
LINE
  8
_0-0_0
  6
CONTINUOUS
 62
    7
 10
144.76023500030112
 20
231.13903895650924
 11
144.71547313638652
 21
231.19904311349831
  0
LINE
  8
_0-0_0
  6
CONTINUOUS
 62
    7
 10
144.71547313638652
 20
231.19904311349831
 11
144.70520438374712
 21
231.24687323121361
  0
LINE
  8
_0-0_0
  6
CONTINUOUS
 62
    7
 10
155.20575864894982
 20
225.99422067631505
 11
155.21602740158912
 21
225.94876598089695
  0
LINE
  8
_0-0_0
  6
CONTINUOUS
 62
    7
 10
155.21602740158912
 20
225.94876598089695
 11
155.26078926550392
 21
225.88876182390786
  0
LINE
  8
_0-0_0
  6
CONTINUOUS
 62
    7
 10
155.26078926550392
 20
225.88876182390786
 11
155.33754509848512
 21
225.83749229265786
  0
LINE
  8
_0-0_0
  6
CONTINUOUS
 62
    7
 10
155.33754509848512
 20
225.83749229265786
 11
155.44008416098524
 21
225.79911437616715
  0
LINE
  8
_0-0_0
  6
CONTINUOUS
 62
    7
 10
155.44008416098524
 20
225.79911437616715
 11
155.56009247496334
 21
225.77674581620107
  0
LINE
  8
_0-0_0
  6
CONTINUOUS
 62
    7
 10
155.56009247496334
 20
225.77674581620107
 11
155.68784565538982
 21
225.77216817948226
  0
LINE
  8
_0-0_0
  6
CONTINUOUS
 62
    7
 10
155.68784565538982
 20
225.77216817948226
 11
155.81300071767873
 21
225.78577736972716
  0
LINE
  8
_0-0_0
  6
CONTINUOUS
 62
    7
 10
155.81300071767873
 20
225.78577736972716
 11
155.92541262910183
 21
225.81648465171617
  0
LINE
  8
_0-0_0
  6
CONTINUOUS
 62
    7
 10
155.92541262910183
 20
225.81648465171617
 11
156.01597560418634
 21
225.86176613925846
  0
LINE
  8
_0-0_0
  6
CONTINUOUS
 62
    7
 10
156.01597560418634
 20
225.86176613925846
 11
156.07736542418203
 21
225.91795972297885
  0
LINE
  8
_0-0_0
  6
CONTINUOUS
 62
    7
 10
156.07736542418203
 20
225.91795972297885
 11
156.10458380467193
 21
225.98056199810557
  0
LINE
  8
_0-0_0
  6
CONTINUOUS
 62
    7
 10
156.10458380467193
 20
225.98056199810557
 11
156.10574677183834
 21
225.99659609861237
  0
LINE
  8
_0-0_0
  6
CONTINUOUS
 62
    7
 10
157.24951260798693
 20
226.40526770967656
 11
157.26124125557993
 21
226.41380438355736
  0
LINE
  8
_0-0_0
  6
CONTINUOUS
 62
    7
 10
157.26124125557993
 20
226.41380438355736
 11
157.33359265971833
 21
226.48147917504815
  0
LINE
  8
_0-0_0
  6
CONTINUOUS
 62
    7
 10
157.33359265971833
 20
226.48147917504815
 11
157.37813182779271
 21
226.55489457042395
  0
LINE
  8
_0-0_0
  6
CONTINUOUS
 62
    7
 10
157.37813182779271
 20
226.55489457042395
 11
157.39317616900894
 21
226.63125449968916
  0
LINE
  8
_0-0_0
  6
CONTINUOUS
 62
    7
 10
157.39317616900894
 20
226.63125449968916
 11
157.37813182779271
 21
226.70761442895437
  0
LINE
  8
_0-0_0
  6
CONTINUOUS
 62
    7
 10
157.37813182779271
 20
226.70761442895437
 11
157.33359265971833
 21
226.78105456831247
  0
LINE
  8
_0-0_0
  6
CONTINUOUS
 62
    7
 10
157.33359265971833
 20
226.78105456831247
 11
157.26124125557993
 21
226.84872935980317
  0
LINE
  8
_0-0_0
  6
CONTINUOUS
 62
    7
 10
157.26124125557993
 20
226.84872935980317
 11
157.16387368537292
 21
226.90804068528885
  0
LINE
  8
_0-0_0
  6
CONTINUOUS
 62
    7
 10
62.211557401193289
 20
189.77504343022125
 11
62.314096463693289
 21
189.73666551373057
  0
LINE
  8
_0-0_0
  6
CONTINUOUS
 62
    7
 10
62.314096463693289
 20
189.73666551373057
 11
62.434104777671308
 21
189.71429695376426
  0
LINE
  8
_0-0_0
  6
CONTINUOUS
 62
    7
 10
62.434104777671308
 20
189.71429695376426
 11
62.561857958097846
 21
189.70971931704557
  0
LINE
  8
_0-0_0
  6
CONTINUOUS
 62
    7
 10
62.561857958097846
 20
189.70971931704557
 11
62.687013020386672
 21
189.72332850729055
  0
LINE
  8
_0-0_0
  6
CONTINUOUS
 62
    7
 10
62.687013020386672
 20
189.72332850729055
 11
62.79944967579209
 21
189.75403578927956
  0
LINE
  8
_0-0_0
  6
CONTINUOUS
 62
    7
 10
62.79944967579209
 20
189.75403578927956
 11
62.890012650876542
 21
189.79931727682177
  0
LINE
  8
_0-0_0
  6
CONTINUOUS
 62
    7
 10
62.890012650876542
 20
189.79931727682177
 11
62.951402470872324
 21
189.85551086054215
  0
LINE
  8
_0-0_0
  6
CONTINUOUS
 62
    7
 10
62.951402470872324
 20
189.85551086054215
 11
62.978620851362194
 21
189.91808839168667
  0
LINE
  8
_0-0_0
  6
CONTINUOUS
 62
    7
 10
62.978620851362194
 20
189.91808839168667
 11
62.979734330564042
 21
189.93652265847297
  0
LINE
  8
_0-0_0
  6
CONTINUOUS
 62
    7
 10
61.021619294140919
 20
190.84559182285216
 11
60.924251723933992
 21
190.78628049736656
  0
LINE
  8
_0-0_0
  6
CONTINUOUS
 62
    7
 10
60.924251723933992
 20
190.78628049736656
 11
60.851925063777742
 21
190.71860570587586
  0
LINE
  8
_0-0_0
  6
CONTINUOUS
 62
    7
 10
60.851925063777742
 20
190.71860570587586
 11
60.807361151721153
 21
190.64516556651776
  0
LINE
  8
_0-0_0
  6
CONTINUOUS
 62
    7
 10
60.807361151721153
 20
190.64516556651776
 11
60.792316810504929
 21
190.56880563725255
  0
LINE
  8
_0-0_0
  6
CONTINUOUS
 62
    7
 10
60.792316810504929
 20
190.56880563725255
 11
60.807361151721153
 21
190.49244570798737
  0
LINE
  8
_0-0_0
  6
CONTINUOUS
 62
    7
 10
60.807361151721153
 20
190.49244570798737
 11
60.851925063777742
 21
190.41903031261145
  0
LINE
  8
_0-0_0
  6
CONTINUOUS
 62
    7
 10
60.851925063777742
 20
190.41903031261145
 11
60.924251723933992
 21
190.35135552112067
  0
LINE
  8
_0-0_0
  6
CONTINUOUS
 62
    7
 10
60.924251723933992
 20
190.35135552112067
 11
60.935980371526881
 21
190.34281884723987
  0
ARC
  8
_0-0_0
  6
CONTINUOUS
 62
    7
 10
355.74390727120488
 20
211.22508203083356
 40
0.200000002577498
 50
270
 51
0
  0
ARC
  8
_0-0_0
  6
CONTINUOUS
 62
    7
 10
245.84390595152584
 20
211.22508203083356
 40
0.200000002577498
 50
180
 51
270
  0
ARC
  8
_0-0_0
  6
CONTINUOUS
 62
    7
 10
244.64389704369222
 20
211.72508368043245
 40
0.100000001288749
 50
90
 51
101.5369567871093
  0
ARC
  8
_0-0_0
  6
CONTINUOUS
 62
    7
 10
356.94391617903852
 20
211.72508368043245
 40
0.100000001288749
 50
78.463027954101563
 51
90
  0
ARC
  8
_0-0_0
  6
CONTINUOUS
 62
    7
 10
357.09391419951999
 20
211.37508005131505
 40
0.0500000006443745
 50
180
 51
270
  0
ARC
  8
_0-0_0
  6
CONTINUOUS
 62
    7
 10
357.04390661136529
 20
211.32507246316047
 40
0.100000001288749
 50
180
 51
270
  0
ARC
  8
_0-0_0
  6
CONTINUOUS
 62
    7
 10
356.89390859088383
 20
211.67507609227786
 40
0.0500000006443745
 50
0
 51
90
  0
ARC
  8
_0-0_0
  6
CONTINUOUS
 62
    7
 10
356.94391617903852
 20
211.72508368043245
 40
0.100000001288749
 50
0
 51
78.463027954101563
  0
ARC
  8
_0-0_0
  6
CONTINUOUS
 62
    7
 10
244.69390463184683
 20
211.67507609227786
 40
0.0500000006443745
 50
90
 51
180
  0
ARC
  8
_0-0_0
  6
CONTINUOUS
 62
    7
 10
244.54390661136532
 20
211.32507246316047
 40
0.100000001288749
 50
270
 51
0
  0
ARC
  8
_0-0_0
  6
CONTINUOUS
 62
    7
 10
244.49389902321082
 20
211.37508005131505
 40
0.0500000006443745
 50
270
 51
0
  0
ARC
  8
_0-0_0
  6
CONTINUOUS
 62
    7
 10
244.64389704369222
 20
211.72508368043245
 40
0.100000001288749
 50
101.53695678710929
 51
180
  0
ARC
  8
_0-0_0
  6
CONTINUOUS
 62
    7
 10
53.027723222165605
 20
117.33748074546617
 40
0.100000001288749
 50
180
 51
270
  0
CIRCLE
  8
_0-0_0
  6
CONTINUOUS
 62
    7
 10
51.502717572289669
 20
115.81248437458356
 40
0.5000000064437456
  0
CIRCLE
  8
_0-0_0
  6
CONTINUOUS
 62
    7
 10
51.502717572289669
 20
115.81248437458356
 40
0.4500000057993707
  0
ARC
  8
_0-0_0
  6
CONTINUOUS
 62
    7
 10
50.827720294127715
 20
115.13749328241715
 40
0.7828427166552156
 50
180
 51
270
  0
CIRCLE
  8
_0-0_0
  6
CONTINUOUS
 62
    7
 10
51.477719964207949
 20
115.81248437458356
 40
0.3250000041884345
  0
CIRCLE
  8
_0-0_0
  6
CONTINUOUS
 62
    7
 10
51.477719964207949
 20
115.81248437458356
 40
0.2750000035440599
  0
ARC
  8
_0-0_0
  6
CONTINUOUS
 62
    7
 10
50.827720294127715
 20
115.13749328241715
 40
0.9000000115987415
 50
180
 51
270
  0
ARC
  8
_0-0_0
  6
CONTINUOUS
 62
    7
 10
166.82771019033493
 20
129.13748998321955
 40
0.100000001288749
 50
0
 51
90
  0
CIRCLE
  8
_0-0_0
  6
CONTINUOUS
 62
    7
 10
168.35271893320873
 20
130.66248635410216
 40
0.5000000064437456
  0
CIRCLE
  8
_0-0_0
  6
CONTINUOUS
 62
    7
 10
168.35271893320873
 20
130.66248635410216
 40
0.4500000057993707
  0
ARC
  8
_0-0_0
  6
CONTINUOUS
 62
    7
 10
169.02771002537503
 20
131.33747744626857
 40
0.7828427166552156
 50
0
 51
90
  0
CIRCLE
  8
_0-0_0
  6
CONTINUOUS
 62
    7
 10
168.37771035529482
 20
130.66248635410216
 40
0.3250000041884345
  0
CIRCLE
  8
_0-0_0
  6
CONTINUOUS
 62
    7
 10
168.37771035529482
 20
130.66248635410216
 40
0.2750000035440599
  0
ARC
  8
_0-0_0
  6
CONTINUOUS
 62
    7
 10
169.02771002537503
 20
131.33747744626857
 40
0.9000000115987415
 50
0
 51
90
  0
ARC
  8
_0-0_0
  6
CONTINUOUS
 62
    7
 10
166.82771019033493
 20
117.33748074546617
 40
0.100000001288749
 50
270
 51
0
  0
CIRCLE
  8
_0-0_0
  6
CONTINUOUS
 62
    7
 10
168.35271893320873
 20
115.81248437458356
 40
0.5000000064437456
  0
CIRCLE
  8
_0-0_0
  6
CONTINUOUS
 62
    7
 10
168.35271893320873
 20
115.81248437458356
 40
0.4500000057993707
  0
ARC
  8
_0-0_0
  6
CONTINUOUS
 62
    7
 10
169.02771002537503
 20
115.13749328241715
 40
0.7828427166552156
 50
270
 51
0
  0
CIRCLE
  8
_0-0_0
  6
CONTINUOUS
 62
    7
 10
168.37771035529482
 20
115.81248437458356
 40
0.3250000041884345
  0
CIRCLE
  8
_0-0_0
  6
CONTINUOUS
 62
    7
 10
168.37771035529482
 20
115.81248437458356
 40
0.2750000035440599
  0
ARC
  8
_0-0_0
  6
CONTINUOUS
 62
    7
 10
169.02771002537503
 20
115.13749328241715
 40
0.9000000115987415
 50
270
 51
0
  0
ARC
  8
_0-0_0
  6
CONTINUOUS
 62
    7
 10
53.027723222165605
 20
129.13748998321955
 40
0.100000001288749
 50
90
 51
180
  0
CIRCLE
  8
_0-0_0
  6
CONTINUOUS
 62
    7
 10
51.502717572289669
 20
130.66248635410216
 40
0.5000000064437456
  0
CIRCLE
  8
_0-0_0
  6
CONTINUOUS
 62
    7
 10
51.502717572289669
 20
130.66248635410216
 40
0.4500000057993707
  0
ARC
  8
_0-0_0
  6
CONTINUOUS
 62
    7
 10
50.827720294127715
 20
131.33747744626857
 40
0.7828427166552156
 50
90
 51
180
  0
CIRCLE
  8
_0-0_0
  6
CONTINUOUS
 62
    7
 10
51.477719964207949
 20
130.66248635410216
 40
0.3250000041884345
  0
CIRCLE
  8
_0-0_0
  6
CONTINUOUS
 62
    7
 10
51.477719964207949
 20
130.66248635410216
 40
0.2750000035440599
  0
ARC
  8
_0-0_0
  6
CONTINUOUS
 62
    7
 10
50.827720294127715
 20
131.33747744626857
 40
0.9000000115987415
 50
90
 51
180
  0
ARC
  8
_0-0_0
  6
CONTINUOUS
 62
    7
 10
29.757102824546308
 20
131.83747909586737
 40
0.4000000051549961
 50
90
 51
135
  0
ARC
  8
_0-0_0
  6
CONTINUOUS
 62
    7
 10
29.757102824546308
 20
114.63749163281835
 40
0.4000000051549961
 50
225
 51
270
  0
ARC
  8
_0-0_0
  6
CONTINUOUS
 62
    7
 10
30.731415684158861
 20
114.25749829719757
 40
0.0200000002577498
 50
299.99998474121088
 51
0
  0
ARC
  8
_0-0_0
  6
CONTINUOUS
 62
    7
 10
30.731415684158861
 20
114.51748331884036
 40
0.0200000002577498
 50
0
 51
59.999969482421875
  0
ARC
  8
_0-0_0
  6
CONTINUOUS
 62
    7
 10
30.731415684158861
 20
132.21749717547036
 40
0.0200000002577498
 50
359.99996948242187
 51
59.999984741210859
  0
ARC
  8
_0-0_0
  6
CONTINUOUS
 62
    7
 10
30.731415684158861
 20
131.95748740984536
 40
0.0200000002577498
 50
299.99998474121088
 51
0
  0
ARC
  8
_0-0_0
  6
CONTINUOUS
 62
    7
 10
62.590734185399356
 20
173.01577103526765
 40
0.2752188331372029
 50
268.40040588378901
 51
358.41691589355469
  0
ARC
  8
_0-0_0
  6
CONTINUOUS
 62
    7
 10
73.030294534322536
 20
184.31280934555065
 40
0.1184344734694506
 50
243.28375244140608
 51
296.71623229980469
  0
ARC
  8
_0-0_0
  6
CONTINUOUS
 62
    7
 10
145.18924616478591
 20
230.7465251658632
 40
0.6987281586672805
 50
64.831893920898438
 51
91.520065307617145
  0
ARC
  8
_0-0_0
  6
CONTINUOUS
 62
    7
 10
145.44005116900894
 20
231.22081781789029
 40
0.16476053643871
 50
9.5391845703125
 51
73.668441772460923
  0
ARC
  8
_0-0_0
  6
CONTINUOUS
 62
    7
 10
155.67408800125133
 20
225.45727626119677
 40
0.7406810006579839
 50
65.015670776367188
 51
97.803466796875014
  0
ARC
  8
_0-0_0
  6
CONTINUOUS
 62
    7
 10
155.94030850642443
 20
225.96984785378547
 40
0.1655022880515535
 50
10.625869750976561
 51
73.637863159179688
  0
ARC
  8
_0-0_0
  6
CONTINUOUS
 62
    7
 10
156.95646962604013
 20
226.86837608172036
 40
0.5497942744074642
 50
298.83203125
 51
0.9467620849609358
  0
ARC
  8
_0-0_0
  6
CONTINUOUS
 62
    7
 10
61.205392850412039
 20
190.79593065044935
 40
0.5263381874239122
 50
178.19679260253901
 51
240.04707336425781
  0
ARC
  8
_0-0_0
  6
CONTINUOUS
 62
    7
 10
73.030294534322536
 20
185.84315041660216
 40
0.1745466122756133
 50
246.1019287109375
 51
293.89805603027332
  0
ARC
  8
_0-0_0
  6
CONTINUOUS
 62
    7
 10
73.030294534322536
 20
185.97305632348557
 40
0.1745466122756133
 50
246.1019287109375
 51
293.89805603027332
  0
ARC
  8
_0-0_0
  6
CONTINUOUS
 62
    7
 10
71.457641253600372
 20
185.17929411645437
 40
0.1897187208807145
 50
237.77099609375
 51
301.39181518554687
  0
ARC
  8
_0-0_0
  6
CONTINUOUS
 62
    7
 10
74.602947815044644
 20
185.17929411645437
 40
0.1897187208807145
 50
238.60816955566415
 51
302.22898864746094
  0
ARC
  8
_0-0_0
  6
CONTINUOUS
 62
    7
 10
145.15519844519142
 20
231.3863303152508
 40
1.3664254304525001
 50
66.1019287109375
 51
113.89805603027339
  0
ARC
  8
_0-0_0
  6
CONTINUOUS
 62
    7
 10
145.10556201677073
 20
232.93654080405997
 40
0.5869389063603166
 50
181.4226837158204
 51
210.8460235595704
  0
ARC
  8
_0-0_0
  6
CONTINUOUS
 62
    7
 10
145.15519844519142
 20
231.48572689200341
 40
1.5709194621524281
 50
66.1019287109375
 51
113.89805603027339
  0
ARC
  8
_0-0_0
  6
CONTINUOUS
 62
    7
 10
145.20483487361193
 20
232.93654080405997
 40
0.5869389063603166
 50
329.15394592285162
 51
358.57728576660162
  0
ARC
  8
_0-0_0
  6
CONTINUOUS
 62
    7
 10
145.15519844519142
 20
232.33818182496373
 40
1.5709194621524281
 50
66.1019287109375
 51
113.89805603027339
  0
ARC
  8
_0-0_0
  6
CONTINUOUS
 62
    7
 10
146.79582344519142
 20
232.14104651827029
 40
0.5869389063603166
 50
329.15394592285162
 51
358.57728576660162
  0
ARC
  8
_0-0_0
  6
CONTINUOUS
 62
    7
 10
143.51457344519142
 20
232.14104651827029
 40
0.5869389063603166
 50
181.4226837158204
 51
210.8460235595704
  0
ARC
  8
_0-0_0
  6
CONTINUOUS
 62
    7
 10
143.92750102120482
 20
231.27114707781413
 40
0.5079738513843431
 50
208.5657653808594
 51
241.01715087890619
  0
ARC
  8
_0-0_0
  6
CONTINUOUS
 62
    7
 10
146.38289586917782
 20
231.27114707781413
 40
0.5079738513843431
 50
298.98283386230469
 51
331.43421936035168
  0
ARC
  8
_0-0_0
  6
CONTINUOUS
 62
    7
 10
145.15519844519142
 20
230.00101372424581
 40
0.1745466122756133
 50
66.1019287109375
 51
113.89805603027339
  0
ARC
  8
_0-0_0
  6
CONTINUOUS
 62
    7
 10
155.06897391499712
 20
228.00447128336745
 40
0.5869389063603166
 50
329.15394592285162
 51
358.57728576660162
  0
ARC
  8
_0-0_0
  6
CONTINUOUS
 62
    7
 10
154.65604633898363
 20
227.13457184291127
 40
0.5079738513843431
 50
298.98283386230469
 51
331.43421936035168
  0
ARC
  8
_0-0_0
  6
CONTINUOUS
 62
    7
 10
156.65996248657652
 20
227.20897699757765
 40
0.5869389063603166
 50
329.15394592285162
 51
358.57728576660162
  0
ARC
  8
_0-0_0
  6
CONTINUOUS
 62
    7
 10
155.00317966615842
 20
225.39266972350677
 40
0.2031696003836553
 50
240.19052124023437
 51
292.54170227050781
  0
ARC
  8
_0-0_0
  6
CONTINUOUS
 62
    7
 10
157.11606831163982
 20
227.67032854688097
 40
0.3985597072420892
 50
8.4162445068359375
 51
70.862289428710938
  0
ARC
  8
_0-0_0
  6
CONTINUOUS
 62
    7
 10
63.529446640530267
 20
191.07212298047466
 40
0.5079738513843431
 50
208.5657653808594
 51
241.01715087890619
  0
ARC
  8
_0-0_0
  6
CONTINUOUS
 62
    7
 10
63.116519064516751
 20
191.94202242093067
 40
0.5869389063603166
 50
181.4226837158204
 51
210.8460235595704
  0
ARC
  8
_0-0_0
  6
CONTINUOUS
 62
    7
 10
61.525530492937349
 20
191.14652813514107
 40
0.5869389063603166
 50
181.4226837158204
 51
210.8460235595704
  0
ARC
  8
_0-0_0
  6
CONTINUOUS
 62
    7
 10
63.182857680965242
 20
189.32190688302956
 40
0.1957244043414657
 50
246.3819580078125
 51
300.88578796386719
  0
ARC
  8
_0-0_0
  6
CONTINUOUS
 62
    7
 10
61.069449411856283
 20
191.60785494046195
 40
0.3985597072420892
 50
109.1376953125
 51
171.58374023437503
  0
ARC
  8
_0-0_0
  6
CONTINUOUS
 62
    7
 10
155.06897391499712
 20
228.01313167715966
 40
0.5869389063603166
 50
329.15394592285162
 51
358.57728576660162
  0
ARC
  8
_0-0_0
  6
CONTINUOUS
 62
    7
 10
154.65604633898363
 20
227.14323223670345
 40
0.5079738513843431
 50
298.98283386230469
 51
331.43421936035168
  0
ARC
  8
_0-0_0
  6
CONTINUOUS
 62
    7
 10
155.64434573457063
 20
228.83487932813097
 40
0.0114393624401575
 50
354.02529907226562
 51
57.303833007812514
  0
ARC
  8
_0-0_0
  6
CONTINUOUS
 62
    7
 10
153.54353215243364
 20
226.03047061033107
 40
0.009786220066048
 50
246.3819580078125
 51
300.88578796386719
  0
ARC
  8
_0-0_0
  6
CONTINUOUS
 62
    7
 10
72.895291367092739
 20
185.72771973934294
 40
0.0289532955031137
 50
300.75784301757812
 51
359.03218078613281
  0
ARC
  8
_0-0_0
  6
CONTINUOUS
 62
    7
 10
72.912859594499821
 20
185.82367690256086
 40
0.0114393624401575
 50
354.02529907226562
 51
57.303833007812514
  0
ARC
  8
_0-0_0
  6
CONTINUOUS
 62
    7
 10
71.456008150770998
 20
185.19399204191896
 40
0.1957244043414657
 50
246.3819580078125
 51
300.88578796386719
  0
ARC
  8
_0-0_0
  6
CONTINUOUS
 62
    7
 10
73.165322445534485
 20
185.72771973934294
 40
0.0289532955031137
 50
180.9678039550781
 51
239.24214172363281
  0
ARC
  8
_0-0_0
  6
CONTINUOUS
 62
    7
 10
73.147432546357948
 20
185.82382536645437
 40
0.0111453955036562
 50
121.76026916503901
 51
186.91056823730469
  0
ARC
  8
_0-0_0
  6
CONTINUOUS
 62
    7
 10
74.605125285483808
 20
185.20230601995937
 40
0.2031696003836553
 50
240.19052124023437
 51
292.54170227050781
  0
ARC
  8
_0-0_0
  6
CONTINUOUS
 62
    7
 10
63.116519064516751
 20
191.95068281472297
 40
0.5869389063603166
 50
181.4226837158204
 51
210.8460235595704
  0
ARC
  8
_0-0_0
  6
CONTINUOUS
 62
    7
 10
63.529446640530267
 20
191.08078337426687
 40
0.5079738513843431
 50
208.5657653808594
 51
241.01715087890619
  0
ARC
  8
_0-0_0
  6
CONTINUOUS
 62
    7
 10
62.540825573173862
 20
192.77257892958767
 40
0.0111453955036562
 50
121.76026916503901
 51
186.91056823730469
  0
ARC
  8
_0-0_0
  6
CONTINUOUS
 62
    7
 10
64.64196082708014
 20
189.96802174789437
 40
0.009786220066048
 50
239.11419677734369
 51
293.61802673339838
  0
ARC
  8
_0-0_0
  6
CONTINUOUS
 62
    7
 10
154.60532117534333
 20
243.54624077502706
 40
0.0489311010853663
 50
246.3819580078125
 51
300.88578796386719
  0
ARC
  8
_0-0_0
  6
CONTINUOUS
 62
    7
 10
64.332091937194122
 20
210.34909557074067
 40
0.0561448085952448
 50
122.03228759765618
 51
186.6385498046875
  0
ARC
  8
_0-0_0
  6
CONTINUOUS
 62
    7
 10
81.091314844183103
 20
212.18524751858695
 40
1.04727967365368
 50
66.1019287109375
 51
113.89805603027339
  0
ARC
  8
_0-0_0
  6
CONTINUOUS
 62
    7
 10
80.52564266565696
 20
213.39314975676265
 40
1.04727967365368
 50
246.1019287109375
 51
293.89805603027332
  0
ARC
  8
_0-0_0
  6
CONTINUOUS
 62
    7
 10
137.65987505783912
 20
240.46952453241727
 40
1.04727967365368
 50
66.1019287109375
 51
113.89805603027339
  0
ARC
  8
_0-0_0
  6
CONTINUOUS
 62
    7
 10
137.09417813533074
 20
241.67740202661071
 40
1.04727967365368
 50
246.1019287109375
 51
293.89805603027332
  0
ARC
  8
_0-0_0
  6
CONTINUOUS
 62
    7
 10
141.98071872865842
 20
248.91142896126019
 40
0.2895329610721483
 50
300.75784301757812
 51
359.03218078613281
  0
ARC
  8
_0-0_0
  6
CONTINUOUS
 62
    7
 10
142.03728347211282
 20
248.88314658953288
 40
0.2895329610721483
 50
300.75784301757812
 51
359.03218078613281
  0
ARC
  8
_0-0_0
  6
CONTINUOUS
 62
    7
 10
145.19221544265753
 20
245.21856281630653
 40
0.0723832402680369
 50
120.7578430175781
 51
179.03218078613281
  0
ARC
  8
_0-0_0
  6
CONTINUOUS
 62
    7
 10
145.19384854548693
 20
245.22435290815622
 40
0.1447462793943044
 50
152.82513427734369
 51
178.66778564453111
  0
ARC
  8
_0-0_0
  6
CONTINUOUS
 62
    7
 10
145.82860592249293
 20
244.9003552043979
 40
0.0723832402680369
 50
120.7578430175781
 51
179.03218078613281
  0
ARC
  8
_0-0_0
  6
CONTINUOUS
 62
    7
 10
153.56312938638644
 20
243.12022363239601
 40
0.2895329610721483
 50
300.75784301757812
 51
359.03218078613281
  0
ARC
  8
_0-0_0
  6
CONTINUOUS
 62
    7
 10
153.61969412984084
 20
243.09194126066893
 40
0.2895329610721483
 50
300.75784301757812
 51
359.03218078613281
  0
ARC
  8
_0-0_0
  6
CONTINUOUS
 62
    7
 10
153.78023308676651
 20
243.50382958942737
 40
0.0723832402680369
 50
0.967803955078125
 51
59.242141723632813
  0
ARC
  8
_0-0_0
  6
CONTINUOUS
 62
    7
 10
153.76902406280112
 20
243.51743877967226
 40
0.1401907044488029
 50
1.0711212158203121
 51
22.579559326171868
  0
ARC
  8
_0-0_0
  6
CONTINUOUS
 62
    7
 10
75.786353510779406
 20
204.50689289443156
 40
0.0723832402680369
 50
0.967803955078125
 51
59.242141723632813
  0
ARC
  8
_0-0_0
  6
CONTINUOUS
 62
    7
 10
137.98058181195654
 20
241.36273280416549
 40
0.2923291760521966
 50
290.74420166015614
 51
339.04499816894526
  0
ARC
  8
_0-0_0
  6
CONTINUOUS
 62
    7
 10
136.77347138121334
 20
241.07990908689362
 40
0.2923291760521966
 50
200.95494079589847
 51
249.25573730468744
  0
ARC
  8
_0-0_0
  6
CONTINUOUS
 62
    7
 10
137.09417813533074
 20
241.76400596453288
 40
1.04727967365368
 50
246.1019287109375
 51
293.89805603027332
  0
ARC
  8
_0-0_0
  6
CONTINUOUS
 62
    7
 10
130.91008785608662
 20
237.82664453083351
 40
0.2916058495238019
 50
290.68045043945313
 51
339.10873413085932
  0
ARC
  8
_0-0_0
  6
CONTINUOUS
 62
    7
 10
108.36520227226063
 20
227.11195584312244
 40
0.5858920232669726
 50
193.55551147460943
 51
250.90171813964844
  0
ARC
  8
_0-0_0
  6
CONTINUOUS
 62
    7
 10
94.407264155310671
 20
220.03577077133187
 40
0.4717872271666657
 50
196.27360534667969
 51
249.69108581542969
  0
ARC
  8
_0-0_0
  6
CONTINUOUS
 62
    7
 10
88.483678521336842
 20
216.61343058446536
 40
0.2916058495238019
 50
290.68045043945313
 51
339.10873413085932
  0
ARC
  8
_0-0_0
  6
CONTINUOUS
 62
    7
 10
81.412046342282821
 20
213.07848053431755
 40
0.2923291760521966
 50
290.74420166015614
 51
339.04499816894526
  0
ARC
  8
_0-0_0
  6
CONTINUOUS
 62
    7
 10
80.204911167557327
 20
212.79563207306336
 40
0.2923291760521966
 50
200.95494079589847
 51
249.25573730468744
  0
ARC
  8
_0-0_0
  6
CONTINUOUS
 62
    7
 10
80.52564266565696
 20
213.47975369468494
 40
1.04727967365368
 50
246.1019287109375
 51
293.89805603027332
  0
ARC
  8
_0-0_0
  6
CONTINUOUS
 62
    7
 10
77.268320096505789
 20
211.33912704508617
 40
0.3469313640852231
 50
243.56053161621088
 51
307.7281494140625
  0
ARC
  8
_0-0_0
  6
CONTINUOUS
 62
    7
 10
64.42406531926764
 20
209.86280208731586
 40
0.0978622021707327
 50
246.3819580078125
 51
300.88578796386719
  0
ARC
  8
_0-0_0
  6
CONTINUOUS
 62
    7
 10
63.698151111602897
 20
209.91624908900505
 40
0.0723832402680369
 50
120.7578430175781
 51
179.03218078613281
  0
ARC
  8
_0-0_0
  6
CONTINUOUS
 62
    7
 10
63.48102266724058
 20
209.61679741565194
 40
0.1447664805360741
 50
300.75784301757812
 51
359.03218078613281
  0
ARC
  8
_0-0_0
  6
CONTINUOUS
 62
    7
 10
63.482705258034514
 20
209.62352777882765
 40
0.0723832402680369
 50
300.75784301757812
 51
359.03218078613281
  0
ARC
  8
_0-0_0
  6
CONTINUOUS
 62
    7
 10
63.705005194689903
 20
209.92114839749325
 40
0.1500041581488944
 50
128.49769592285153
 51
178.37219238281253
  0
ARC
  8
_0-0_0
  6
CONTINUOUS
 62
    7
 10
75.006868581514198
 20
203.85389920249744
 40
0.1447664805360741
 50
300.75784301757812
 51
359.03218078613281
  0
ARC
  8
_0-0_0
  6
CONTINUOUS
 62
    7
 10
75.223997025876542
 20
204.15332613186825
 40
0.0723832402680369
 50
120.7578430175781
 51
179.03218078613281
  0
ARC
  8
_0-0_0
  6
CONTINUOUS
 62
    7
 10
73.079485571062321
 20
208.64089475517906
 40
0.0571968144661669
 50
354.02529907226562
 51
57.303833007812514
  0
ARC
  8
_0-0_0
  6
CONTINUOUS
 62
    7
 10
76.006475976995603
 20
204.07159675845185
 40
0.0978622021707327
 50
246.3819580078125
 51
300.88578796386719
  0
ARC
  8
_0-0_0
  6
CONTINUOUS
 62
    7
 10
72.773971622054717
 20
184.71049462848987
 40
0.1957381899292404
 50
188.37582397460929
 51
251.5752868652344
  0
ARC
  8
_0-0_0
  6
CONTINUOUS
 62
    7
 10
157.11574663987042
 20
226.81745296622216
 40
0.3990524362873387
 50
8.5952911376953125
 51
70.840530395507813
  0
ARC
  8
_0-0_0
  6
CONTINUOUS
 62
    7
 10
62.274654555965242
 20
189.96235537595607
 40
0.1976516440108016
 50
189.80735778808599
 51
251.38449096679687
  0
ARC
  8
_0-0_0
  6
CONTINUOUS
 62
    7
 10
61.059551818950894
 20
190.76376347350677
 40
0.3874953534152055
 50
108.1596221923828
 51
172.7193298339844
  0
TEXT
  8
_0-0_0
 62
    7
 10
325.30883387477684
 20
215.65342923179435
 40
3
 41
1
 50
90.000002504477919
  1
9
  0
TEXT
  8
_0-0_0
 62
    7
 10
325.3088340223029
 20
218.12012465646706
 40
3
 41
1
 50
90.000002504478246
  1
～12
  0
TEXT
  8
_0-0_0
 62
    7
 10
297.8099291646804
 20
85.671592139575154
 40
3
 41
1
 50
0
  1
800
  0
TEXT
  8
_0-0_0
 62
    7
 10
296.57494216351904
 20
69.61362606192526
 40
3
 41
1
 50
0
  1
1169
  0
TEXT
  8
_0-0_0
 62
    7
 10
297.8099291646804
 20
77.231988901082758
 40
3
 41
1
 50
0
  1
900
  0
TEXT
  8
_0-0_0
 62
    7
 10
296.57494216351904
 20
154.07363401299145
 40
3
 41
1
 50
0
  1
1123
  0
TEXT
  8
_0-0_0
 62
    7
 10
296.57494216351904
 20
161.69198448015786
 40
3
 41
1
 50
0
  1
1183
  0
TEXT
  8
_0-0_0
 62
    7
 10
105.39832044292153
 20
140.26231017694846
 40
3
 41
1
 50
0
  1
1200
  0
TEXT
  8
_0-0_0
 62
    7
 10
36.046524421588913
 20
140.19686234386145
 40
3
 41
1
 50
0
  1
20
  0
TEXT
  8
_0-0_0
 62
    7
 10
19.340143152485126
 20
120.26101771627486
 40
3
 41
1
 50
90.000002504478147
  1
180
  0
LINE
  8
_0-0_0
  6
CENTER2
 62
    7
 10
239.95632281174542
 20
123.23748536434286
 11
361.82125201096426
 21
123.23748536434286
  0
LINE
  8
_0-0_0
  6
CENTER2
 62
    7
 10
300.79390661136529
 20
133.15411876410005
 11
300.79390661136529
 21
111.62629745524237
  0
LINE
  8
_0-0_0
  6
CENTER2
 62
    7
 10
270.7939066113654
 20
124.17296872978835
 11
270.7939066113654
 21
122.28214495313085
  0
LINE
  8
_0-0_0
  6
CENTER2
 62
    7
 10
260.79389836337134
 20
124.17296872978835
 11
260.79389836337134
 21
122.28214495313085
  0
LINE
  8
_0-0_0
  6
CENTER2
 62
    7
 10
330.79390661136529
 20
124.17296872978835
 11
330.79390661136529
 21
122.28214495313085
  0
LINE
  8
_0-0_0
  6
CENTER2
 62
    7
 10
340.79391485935946
 20
124.17296872978835
 11
340.79391485935946
 21
122.28214495313085
  0
LINE
  8
_0-0_0
  6
CONTINUOUS
 62
    7
 10
249.49389077521673
 20
122.78749130289856
 11
249.39390034288982
 21
122.78749130289856
  0
LINE
  8
_0-0_0
  6
CONTINUOUS
 62
    7
 10
249.39390034288982
 20
122.78749130289856
 11
249.39390034288982
 21
122.93748932337996
  0
LINE
  8
_0-0_0
  6
CONTINUOUS
 62
    7
 10
249.39390034288982
 20
122.93748932337996
 11
249.49389077521673
 21
122.93748932337996
  0
LINE
  8
_0-0_0
  6
CONTINUOUS
 62
    7
 10
249.49389077521673
 20
122.93748932337996
 11
249.49389077521673
 21
122.78749130289856
  0
LINE
  8
_0-0_0
  6
CONTINUOUS
 62
    7
 10
249.49389077521673
 20
123.53749377729685
 11
249.39390034288982
 21
123.53749377729685
  0
LINE
  8
_0-0_0
  6
CONTINUOUS
 62
    7
 10
249.39390034288982
 20
122.93748932337996
 11
249.39390034288982
 21
123.53749377729685
  0
LINE
  8
_0-0_0
  6
CONTINUOUS
 62
    7
 10
249.49389077521673
 20
123.53749377729685
 11
249.49389077521673
 21
122.93748932337996
  0
LINE
  8
_0-0_0
  6
CONTINUOUS
 62
    7
 10
249.39390034288982
 20
123.68749179777825
 11
249.49389077521673
 21
123.68749179777825
  0
LINE
  8
_0-0_0
  6
CONTINUOUS
 62
    7
 10
249.39390034288982
 20
123.53749377729685
 11
249.39390034288982
 21
123.68749179777825
  0
LINE
  8
_0-0_0
  6
CONTINUOUS
 62
    7
 10
249.49389077521673
 20
123.68749179777825
 11
249.49389077521673
 21
123.53749377729685
  0
LINE
  8
_0-0_0
  6
CONTINUOUS
 62
    7
 10
352.19391287984092
 20
122.78749130289856
 11
352.09389770353175
 21
122.78749130289856
  0
LINE
  8
_0-0_0
  6
CONTINUOUS
 62
    7
 10
352.09389770353175
 20
122.78749130289856
 11
352.09389770353175
 21
122.93748932337996
  0
LINE
  8
_0-0_0
  6
CONTINUOUS
 62
    7
 10
352.09389770353175
 20
122.93748932337996
 11
352.19391287984092
 21
122.93748932337996
  0
LINE
  8
_0-0_0
  6
CONTINUOUS
 62
    7
 10
352.19391287984092
 20
122.93748932337996
 11
352.19391287984092
 21
122.78749130289856
  0
LINE
  8
_0-0_0
  6
CONTINUOUS
 62
    7
 10
352.19391287984092
 20
123.53749377729685
 11
352.09389770353175
 21
123.53749377729685
  0
LINE
  8
_0-0_0
  6
CONTINUOUS
 62
    7
 10
352.19391287984092
 20
123.53749377729685
 11
352.19391287984092
 21
122.93748932337996
  0
LINE
  8
_0-0_0
  6
CONTINUOUS
 62
    7
 10
352.09389770353175
 20
122.93748932337996
 11
352.09389770353175
 21
123.53749377729685
  0
LINE
  8
_0-0_0
  6
CONTINUOUS
 62
    7
 10
352.09389770353175
 20
123.68749179777825
 11
352.19391287984092
 21
123.68749179777825
  0
LINE
  8
_0-0_0
  6
CONTINUOUS
 62
    7
 10
352.19391287984092
 20
123.68749179777825
 11
352.19391287984092
 21
123.53749377729685
  0
LINE
  8
_0-0_0
  6
CONTINUOUS
 62
    7
 10
352.09389770353175
 20
123.53749377729685
 11
352.09389770353175
 21
123.68749179777825
  0
LINE
  8
_0-0_0
  6
CONTINUOUS
 62
    7
 10
245.84390595152584
 20
115.08748569426265
 11
245.84390595152584
 21
115.00748839960465
  0
LINE
  8
_0-0_0
  6
CONTINUOUS
 62
    7
 10
355.74390727120488
 20
115.08748569426265
 11
245.84390595152584
 21
115.08748569426265
  0
LINE
  8
_0-0_0
  6
CONTINUOUS
 62
    7
 10
355.74390727120488
 20
115.00748839960465
 11
355.74390727120488
 21
115.08748569426265
  0
LINE
  8
_0-0_0
  6
CONTINUOUS
 62
    7
 10
245.84390595152584
 20
115.00748839960465
 11
355.74390727120488
 21
115.00748839960465
  0
LINE
  8
_0-0_0
  6
CONTINUOUS
 62
    7
 10
245.64390034288982
 20
115.00748839960465
 11
245.64390034288982
 21
115.08748569426265
  0
LINE
  8
_0-0_0
  6
CONTINUOUS
 62
    7
 10
245.64390034288982
 20
115.08748569426265
 11
245.84390595152584
 21
115.08748569426265
  0
LINE
  8
_0-0_0
  6
CONTINUOUS
 62
    7
 10
245.84390595152584
 20
115.00748839960465
 11
245.64390034288982
 21
115.00748839960465
  0
LINE
  8
_0-0_0
  6
CONTINUOUS
 62
    7
 10
355.94391287984092
 20
115.08748569426265
 11
355.94391287984092
 21
115.00748839960465
  0
LINE
  8
_0-0_0
  6
CONTINUOUS
 62
    7
 10
355.74390727120488
 20
115.08748569426265
 11
355.94391287984092
 21
115.08748569426265
  0
LINE
  8
_0-0_0
  6
CONTINUOUS
 62
    7
 10
355.94391287984092
 20
115.00748839960465
 11
355.74390727120488
 21
115.00748839960465
  0
LINE
  8
_0-0_0
  6
CONTINUOUS
 62
    7
 10
245.84390595152584
 20
131.46749470107216
 11
245.84390595152584
 21
131.38749740641427
  0
LINE
  8
_0-0_0
  6
CONTINUOUS
 62
    7
 10
355.74390727120488
 20
131.46749470107216
 11
245.84390595152584
 21
131.46749470107216
  0
LINE
  8
_0-0_0
  6
CONTINUOUS
 62
    7
 10
355.74390727120488
 20
131.38749740641427
 11
355.74390727120488
 21
131.46749470107216
  0
LINE
  8
_0-0_0
  6
CONTINUOUS
 62
    7
 10
245.84390595152584
 20
131.38749740641427
 11
355.74390727120488
 21
131.38749740641427
  0
LINE
  8
_0-0_0
  6
CONTINUOUS
 62
    7
 10
245.64390034288982
 20
131.38749740641427
 11
245.64390034288982
 21
131.46749470107216
  0
LINE
  8
_0-0_0
  6
CONTINUOUS
 62
    7
 10
245.64390034288982
 20
131.46749470107216
 11
245.84390595152584
 21
131.46749470107216
  0
LINE
  8
_0-0_0
  6
CONTINUOUS
 62
    7
 10
245.84390595152584
 20
131.38749740641427
 11
245.64390034288982
 21
131.38749740641427
  0
LINE
  8
_0-0_0
  6
CONTINUOUS
 62
    7
 10
355.94391287984092
 20
131.46749470107216
 11
355.94391287984092
 21
131.38749740641427
  0
LINE
  8
_0-0_0
  6
CONTINUOUS
 62
    7
 10
355.74390727120488
 20
131.46749470107216
 11
355.94391287984092
 21
131.46749470107216
  0
LINE
  8
_0-0_0
  6
CONTINUOUS
 62
    7
 10
355.94391287984092
 20
131.38749740641427
 11
355.74390727120488
 21
131.38749740641427
  0
LINE
  8
_0-0_0
  6
CONTINUOUS
 62
    7
 10
241.64391189008163
 20
115.38749410721655
 11
241.94390793104444
 21
115.08748569426265
  0
LINE
  8
_0-0_0
  6
CONTINUOUS
 62
    7
 10
241.64391189008163
 20
115.38749410721655
 11
241.64391189008163
 21
131.08748899346025
  0
LINE
  8
_0-0_0
  6
CONTINUOUS
 62
    7
 10
241.94390793104444
 20
131.38749740641427
 11
241.64391189008163
 21
131.08748899346025
  0
LINE
  8
_0-0_0
  6
CONTINUOUS
 62
    7
 10
241.94390793104444
 20
131.38749740641427
 11
244.54390661136532
 21
131.38749740641427
  0
LINE
  8
_0-0_0
  6
CONTINUOUS
 62
    7
 10
244.54390661136532
 20
115.08748569426265
 11
244.54390661136532
 21
131.38749740641427
  0
LINE
  8
_0-0_0
  6
CONTINUOUS
 62
    7
 10
241.94390793104444
 20
115.08748569426265
 11
244.54390661136532
 21
115.08748569426265
  0
LINE
  8
_0-0_0
  6
CONTINUOUS
 62
    7
 10
359.94390133264926
 20
131.08748899346025
 11
359.64390529168622
 21
131.38749740641427
  0
LINE
  8
_0-0_0
  6
CONTINUOUS
 62
    7
 10
359.94390133264926
 20
115.38749410721655
 11
359.94390133264926
 21
131.08748899346025
  0
LINE
  8
_0-0_0
  6
CONTINUOUS
 62
    7
 10
359.64390529168622
 20
115.08748569426265
 11
359.94390133264926
 21
115.38749410721655
  0
LINE
  8
_0-0_0
  6
CONTINUOUS
 62
    7
 10
357.04390661136529
 20
115.08748569426265
 11
359.64390529168622
 21
115.08748569426265
  0
LINE
  8
_0-0_0
  6
CONTINUOUS
 62
    7
 10
357.04390661136529
 20
131.38749740641427
 11
357.04390661136529
 21
115.08748569426265
  0
LINE
  8
_0-0_0
  6
CONTINUOUS
 62
    7
 10
357.04390661136529
 20
131.38749740641427
 11
359.64390529168622
 21
131.38749740641427
  0
LINE
  8
_0-0_0
  6
CONTINUOUS
 62
    7
 10
244.54390661136532
 20
131.38749740641427
 11
244.64389704369222
 21
131.38749740641427
  0
LINE
  8
_0-0_0
  6
CONTINUOUS
 62
    7
 10
244.64389704369222
 20
131.38749740641427
 11
244.64389704369222
 21
115.08748569426265
  0
LINE
  8
_0-0_0
  6
CONTINUOUS
 62
    7
 10
244.64389704369222
 20
115.08748569426265
 11
244.54390661136532
 21
115.08748569426265
  0
LINE
  8
_0-0_0
  6
CONTINUOUS
 62
    7
 10
356.94391617903852
 20
115.08748569426265
 11
356.94391617903852
 21
131.38749740641427
  0
LINE
  8
_0-0_0
  6
CONTINUOUS
 62
    7
 10
356.94391617903852
 20
131.38749740641427
 11
357.04390661136529
 21
131.38749740641427
  0
LINE
  8
_0-0_0
  6
CONTINUOUS
 62
    7
 10
357.04390661136529
 20
115.08748569426265
 11
356.94391617903852
 21
115.08748569426265
  0
LINE
  8
_0-0_0
  6
CONTINUOUS
 62
    7
 10
244.69390463184683
 20
131.38749740641427
 11
244.69390463184683
 21
115.08748569426265
  0
LINE
  8
_0-0_0
  6
CONTINUOUS
 62
    7
 10
244.64389704369222
 20
131.38749740641427
 11
244.69390463184683
 21
131.38749740641427
  0
LINE
  8
_0-0_0
  6
CONTINUOUS
 62
    7
 10
244.69390463184683
 20
115.08748569426265
 11
244.64389704369222
 21
115.08748569426265
  0
LINE
  8
_0-0_0
  6
CONTINUOUS
 62
    7
 10
245.64390034288982
 20
115.13749328241715
 11
355.94391287984092
 21
115.13749328241715
  0
LINE
  8
_0-0_0
  6
CONTINUOUS
 62
    7
 10
355.94391287984092
 20
115.13749328241715
 11
355.94391287984092
 21
115.08748569426265
  0
LINE
  8
_0-0_0
  6
CONTINUOUS
 62
    7
 10
245.64390034288982
 20
115.08748569426265
 11
245.64390034288982
 21
115.13749328241715
  0
LINE
  8
_0-0_0
  6
CONTINUOUS
 62
    7
 10
356.89390859088383
 20
115.08748569426265
 11
356.89390859088383
 21
131.38749740641427
  0
LINE
  8
_0-0_0
  6
CONTINUOUS
 62
    7
 10
356.89390859088383
 20
131.38749740641427
 11
356.94391617903852
 21
131.38749740641427
  0
LINE
  8
_0-0_0
  6
CONTINUOUS
 62
    7
 10
356.94391617903852
 20
115.08748569426265
 11
356.89390859088383
 21
115.08748569426265
  0
LINE
  8
_0-0_0
  6
CONTINUOUS
 62
    7
 10
249.34389275473532
 20
122.78749130289856
 11
249.34389275473532
 21
123.68749179777825
  0
LINE
  8
_0-0_0
  6
CONTINUOUS
 62
    7
 10
249.34389275473532
 20
123.68749179777825
 11
249.39390034288982
 21
123.68749179777825
  0
LINE
  8
_0-0_0
  6
CONTINUOUS
 62
    7
 10
249.39390034288982
 20
122.78749130289856
 11
249.34389275473532
 21
122.78749130289856
  0
LINE
  8
_0-0_0
  6
CONTINUOUS
 62
    7
 10
352.2438957240131
 20
123.68749179777825
 11
352.2438957240131
 21
122.78749130289856
  0
LINE
  8
_0-0_0
  6
CONTINUOUS
 62
    7
 10
352.19391287984092
 20
123.68749179777825
 11
352.2438957240131
 21
123.68749179777825
  0
LINE
  8
_0-0_0
  6
CONTINUOUS
 62
    7
 10
352.2438957240131
 20
122.78749130289856
 11
352.19391287984092
 21
122.78749130289856
  0
LINE
  8
_0-0_0
  6
CONTINUOUS
 62
    7
 10
355.94391287984092
 20
131.33748981825966
 11
245.64390034288982
 21
131.33748981825966
  0
LINE
  8
_0-0_0
  6
CONTINUOUS
 62
    7
 10
355.94391287984092
 20
131.38749740641427
 11
355.94391287984092
 21
131.33748981825966
  0
LINE
  8
_0-0_0
  6
CONTINUOUS
 62
    7
 10
245.64390034288982
 20
131.33748981825966
 11
245.64390034288982
 21
131.38749740641427
  0
LINE
  8
_0-0_0
  6
CONTINUOUS
 62
    7
 10
261.19390958064321
 20
123.83748981825966
 11
260.39391189008154
 21
123.83748981825966
  0
LINE
  8
_0-0_0
  6
CONTINUOUS
 62
    7
 10
260.39391189008154
 20
122.63749328241715
 11
261.19390958064321
 21
122.63749328241715
  0
LINE
  8
_0-0_0
  6
CONTINUOUS
 62
    7
 10
340.39390364208748
 20
122.63749328241715
 11
341.19390133264926
 21
122.63749328241715
  0
LINE
  8
_0-0_0
  6
CONTINUOUS
 62
    7
 10
341.19390133264926
 20
123.83748981825966
 11
340.39390364208748
 21
123.83748981825966
  0
LINE
  8
_0-0_0
  6
CONTINUOUS
 62
    7
 10
345.7939066113654
 20
123.46249476705617
 11
344.55861278482405
 21
123.46249476705617
  0
LINE
  8
_0-0_0
  6
CONTINUOUS
 62
    7
 10
344.55861278482405
 20
123.01248833362075
 11
345.7939066113654
 21
123.01248833362075
  0
LINE
  8
_0-0_0
  6
CONTINUOUS
 62
    7
 10
352.19391287984092
 20
124.08749064305906
 11
350.79389836337145
 21
124.08749064305906
  0
LINE
  8
_0-0_0
  6
CONTINUOUS
 62
    7
 10
350.79389836337145
 20
124.08749064305906
 11
350.79389836337145
 21
122.38749245761775
  0
LINE
  8
_0-0_0
  6
CONTINUOUS
 62
    7
 10
350.79389836337145
 20
122.38749245761775
 11
352.19391287984092
 21
122.38749245761775
  0
LINE
  8
_0-0_0
  6
CONTINUOUS
 62
    7
 10
352.19391287984092
 20
122.38749245761775
 11
352.19391287984092
 21
122.78749130289856
  0
LINE
  8
_0-0_0
  6
CONTINUOUS
 62
    7
 10
352.19391287984092
 20
123.68749179777825
 11
352.19391287984092
 21
124.08749064305906
  0
LINE
  8
_0-0_0
  6
CONTINUOUS
 62
    7
 10
249.39390034288982
 20
122.38749245761775
 11
250.79389011537722
 21
122.38749245761775
  0
LINE
  8
_0-0_0
  6
CONTINUOUS
 62
    7
 10
250.79389011537722
 20
122.38749245761775
 11
250.79389011537722
 21
124.08749064305906
  0
LINE
  8
_0-0_0
  6
CONTINUOUS
 62
    7
 10
250.79389011537722
 20
124.08749064305906
 11
249.39390034288982
 21
124.08749064305906
  0
LINE
  8
_0-0_0
  6
CONTINUOUS
 62
    7
 10
249.39390034288982
 20
124.08749064305906
 11
249.39390034288982
 21
123.68749179777825
  0
LINE
  8
_0-0_0
  6
CONTINUOUS
 62
    7
 10
249.39390034288982
 20
122.78749130289856
 11
249.39390034288982
 21
122.38749245761775
  0
LINE
  8
_0-0_0
  6
CONTINUOUS
 62
    7
 10
331.19389308465497
 20
123.83748981825966
 11
330.39389539409342
 21
123.83748981825966
  0
LINE
  8
_0-0_0
  6
CONTINUOUS
 62
    7
 10
330.39389539409342
 20
122.63749328241715
 11
331.19389308465497
 21
122.63749328241715
  0
LINE
  8
_0-0_0
  6
CONTINUOUS
 62
    7
 10
270.39389539409342
 20
122.63749328241715
 11
271.19389308465497
 21
122.63749328241715
  0
LINE
  8
_0-0_0
  6
CONTINUOUS
 62
    7
 10
271.19389308465497
 20
123.83748981825966
 11
270.39389539409342
 21
123.83748981825966
  0
LINE
  8
_0-0_0
  6
CONTINUOUS
 62
    7
 10
308.79390826096426
 20
120.23748783874106
 11
323.79390826096426
 21
120.23748783874106
  0
LINE
  8
_0-0_0
  6
CONTINUOUS
 62
    7
 10
323.79390826096426
 20
120.23748783874106
 11
323.79390826096426
 21
126.23749526193575
  0
LINE
  8
_0-0_0
  6
CONTINUOUS
 62
    7
 10
323.79390826096426
 20
126.23749526193575
 11
308.79390826096426
 21
126.23749526193575
  0
LINE
  8
_0-0_0
  6
CONTINUOUS
 62
    7
 10
308.79390826096426
 20
126.23749526193575
 11
308.79390826096426
 21
120.23748783874106
  0
LINE
  8
_0-0_0
  6
CONTINUOUS
 62
    7
 10
355.94391287984092
 20
131.38749740641427
 11
356.89390859088383
 21
131.38749740641427
  0
LINE
  8
_0-0_0
  6
CONTINUOUS
 62
    7
 10
244.69390463184683
 20
131.38749740641427
 11
245.64390034288982
 21
131.38749740641427
  0
LINE
  8
_0-0_0
  6
CONTINUOUS
 62
    7
 10
355.94391287984092
 20
115.08748569426265
 11
356.89390859088383
 21
115.08748569426265
  0
LINE
  8
_0-0_0
  6
CONTINUOUS
 62
    7
 10
244.69390463184683
 20
115.08748569426265
 11
245.64390034288982
 21
115.08748569426265
  0
LINE
  8
_0-0_0
  6
CONTINUOUS
 62
    7
 10
327.79389671377248
 20
93.811335429007158
 11
330.79390661136529
 21
93.007490049203454
  0
LINE
  8
_0-0_0
  6
CONTINUOUS
 62
    7
 10
330.79390661136529
 20
93.007490049203454
 11
327.79389671377248
 21
92.203644669399864
  0
LINE
  8
_0-0_0
  6
CONTINUOUS
 62
    7
 10
330.79390661136529
 20
93.007490049203454
 11
327.79389671377248
 21
93.007490049203454
  0
LINE
  8
_0-0_0
  6
CONTINUOUS
 62
    7
 10
273.79389176497602
 20
92.203644669399864
 11
270.7939066113654
 21
93.007490049203454
  0
LINE
  8
_0-0_0
  6
CONTINUOUS
 62
    7
 10
270.7939066113654
 20
93.007490049203454
 11
273.79389176497602
 21
93.811335429007158
  0
LINE
  8
_0-0_0
  6
CONTINUOUS
 62
    7
 10
270.7939066113654
 20
93.007490049203454
 11
273.79389176497602
 21
93.007490049203454
  0
LINE
  8
_0-0_0
  6
CONTINUOUS
 62
    7
 10
330.79390661136529
 20
121.28214165393325
 11
330.79390661136529
 21
92.007486750005853
  0
LINE
  8
_0-0_0
  6
CONTINUOUS
 62
    7
 10
270.7939066113654
 20
121.28214165393325
 11
270.7939066113654
 21
92.007486750005853
  0
LINE
  8
_0-0_0
  6
CONTINUOUS
 62
    7
 10
330.79390661136529
 20
93.007490049203454
 11
270.7939066113654
 21
93.007490049203454
  0
LINE
  8
_0-0_0
  6
CONTINUOUS
 62
    7
 10
311.79389341457488
 20
104.20364714379807
 11
308.79390826096426
 21
105.00749252360177
  0
LINE
  8
_0-0_0
  6
CONTINUOUS
 62
    7
 10
308.79390826096426
 20
105.00749252360177
 11
311.79389341457488
 21
105.81133790340536
  0
LINE
  8
_0-0_0
  6
CONTINUOUS
 62
    7
 10
308.79390826096426
 20
105.00749252360177
 11
311.79389341457488
 21
105.00749252360177
  0
LINE
  8
_0-0_0
  6
CONTINUOUS
 62
    7
 10
320.79389836337134
 20
105.81133790340536
 11
323.79390826096426
 21
105.00749252360177
  0
LINE
  8
_0-0_0
  6
CONTINUOUS
 62
    7
 10
323.79390826096426
 20
105.00749252360177
 11
320.79389836337134
 21
104.20364714379807
  0
LINE
  8
_0-0_0
  6
CONTINUOUS
 62
    7
 10
323.79390826096426
 20
105.00749252360177
 11
320.79389836337134
 21
105.00749252360177
  0
LINE
  8
_0-0_0
  6
CONTINUOUS
 62
    7
 10
308.79390826096426
 20
119.23749691153455
 11
308.79390826096426
 21
104.00748922440405
  0
LINE
  8
_0-0_0
  6
CONTINUOUS
 62
    7
 10
323.79390826096426
 20
119.23749691153455
 11
323.79390826096426
 21
104.00748922440405
  0
LINE
  8
_0-0_0
  6
CONTINUOUS
 62
    7
 10
308.79390826096426
 20
105.00749252360177
 11
323.79390826096426
 21
105.00749252360177
  0
LINE
  8
_0-0_0
  6
CONTINUOUS
 62
    7
 10
327.49083241900894
 20
117.23749031313935
 11
328.29469017080373
 21
120.23748783874106
  0
LINE
  8
_0-0_0
  6
CONTINUOUS
 62
    7
 10
328.29469017080373
 20
120.23748783874106
 11
329.09852317861623
 21
117.23749031313935
  0
LINE
  8
_0-0_0
  6
CONTINUOUS
 62
    7
 10
328.29469017080373
 20
120.23748783874106
 11
328.29469017080373
 21
117.23749031313935
  0
LINE
  8
_0-0_0
  6
CONTINUOUS
 62
    7
 10
329.09852317861623
 20
129.23749278753755
 11
328.29469017080373
 21
126.23749526193575
  0
LINE
  8
_0-0_0
  6
CONTINUOUS
 62
    7
 10
328.29469017080373
 20
126.23749526193575
 11
327.49083241900894
 21
129.23749278753755
  0
LINE
  8
_0-0_0
  6
CONTINUOUS
 62
    7
 10
328.29469017080373
 20
126.23749526193575
 11
328.29469017080373
 21
129.23749278753755
  0
LINE
  8
_0-0_0
  6
CONTINUOUS
 62
    7
 10
324.79391156016186
 20
120.23748783874106
 11
329.29469347000133
 21
120.23748783874106
  0
LINE
  8
_0-0_0
  6
CONTINUOUS
 62
    7
 10
324.79391156016186
 20
126.23749526193575
 11
329.29469347000133
 21
126.23749526193575
  0
LINE
  8
_0-0_0
  6
CONTINUOUS
 62
    7
 10
328.29469017080373
 20
120.23748783874106
 11
328.29469017080373
 21
97.415358305643565
  0
LINE
  8
_0-0_0
  6
CONTINUOUS
 62
    7
 10
328.29469017080373
 20
120.23748783874106
 11
328.29469017080373
 21
126.23749526193575
  0
LINE
  8
_0-0_0
  6
CONTINUOUS
 62
    7
 10
328.29469017080373
 20
126.23749526193575
 11
328.29469017080373
 21
132.23749031313935
  0
LINE
  8
_0-0_0
  6
CONTINUOUS
 62
    7
 10
234.35772464082063
 20
112.08748816866085
 11
235.16155764863302
 21
115.08748569426265
  0
LINE
  8
_0-0_0
  6
CONTINUOUS
 62
    7
 10
235.16155764863302
 20
115.08748569426265
 11
235.96541540042782
 21
112.08748816866085
  0
LINE
  8
_0-0_0
  6
CONTINUOUS
 62
    7
 10
235.16155764863302
 20
115.08748569426265
 11
235.16155764863302
 21
112.08748816866085
  0
LINE
  8
_0-0_0
  6
CONTINUOUS
 62
    7
 10
235.96541540042782
 20
134.38749493201607
 11
235.16155764863302
 21
131.38749740641427
  0
LINE
  8
_0-0_0
  6
CONTINUOUS
 62
    7
 10
235.16155764863302
 20
131.38749740641427
 11
234.35772464082063
 21
134.38749493201607
  0
LINE
  8
_0-0_0
  6
CONTINUOUS
 62
    7
 10
235.16155764863302
 20
131.38749740641427
 11
235.16155764863302
 21
134.38749493201607
  0
LINE
  8
_0-0_0
  6
CONTINUOUS
 62
    7
 10
240.94390463184672
 20
115.08748569426265
 11
234.16155434943542
 21
115.08748569426265
  0
LINE
  8
_0-0_0
  6
CONTINUOUS
 62
    7
 10
240.94390463184672
 20
131.38749740641427
 11
234.16155434943542
 21
131.38749740641427
  0
LINE
  8
_0-0_0
  6
CONTINUOUS
 62
    7
 10
235.16155764863302
 20
115.08748569426265
 11
235.16155764863302
 21
109.08749064305906
  0
LINE
  8
_0-0_0
  6
CONTINUOUS
 62
    7
 10
235.16155764863302
 20
115.08748569426265
 11
235.16155764863302
 21
131.38749740641427
  0
LINE
  8
_0-0_0
  6
CONTINUOUS
 62
    7
 10
235.16155764863302
 20
131.38749740641427
 11
235.16155764863302
 21
137.38749245761775
  0
LINE
  8
_0-0_0
  6
CONTINUOUS
 62
    7
 10
224.84005083908923
 20
112.00749087400285
 11
225.64390859088394
 21
115.00748839960465
  0
LINE
  8
_0-0_0
  6
CONTINUOUS
 62
    7
 10
225.64390859088394
 20
115.00748839960465
 11
226.44774159869644
 21
112.00749087400285
  0
LINE
  8
_0-0_0
  6
CONTINUOUS
 62
    7
 10
225.64390859088394
 20
115.00748839960465
 11
225.64390859088394
 21
112.00749087400285
  0
LINE
  8
_0-0_0
  6
CONTINUOUS
 62
    7
 10
226.44774159869644
 20
134.46749222667395
 11
225.64390859088394
 21
131.46749470107216
  0
LINE
  8
_0-0_0
  6
CONTINUOUS
 62
    7
 10
225.64390859088394
 20
131.46749470107216
 11
224.84005083908923
 21
134.46749222667395
  0
LINE
  8
_0-0_0
  6
CONTINUOUS
 62
    7
 10
225.64390859088394
 20
131.46749470107216
 11
225.64390859088394
 21
134.46749222667395
  0
LINE
  8
_0-0_0
  6
CONTINUOUS
 62
    7
 10
244.84390265232824
 20
115.00748839960465
 11
224.64390529168622
 21
115.00748839960465
  0
LINE
  8
_0-0_0
  6
CONTINUOUS
 62
    7
 10
244.84390265232824
 20
131.46749470107216
 11
224.64390529168622
 21
131.46749470107216
  0
LINE
  8
_0-0_0
  6
CONTINUOUS
 62
    7
 10
225.64390859088394
 20
115.00748839960465
 11
225.64390859088394
 21
109.00749334840117
  0
LINE
  8
_0-0_0
  6
CONTINUOUS
 62
    7
 10
225.64390859088394
 20
115.00748839960465
 11
225.64390859088394
 21
131.46749470107216
  0
LINE
  8
_0-0_0
  6
CONTINUOUS
 62
    7
 10
225.64390859088394
 20
131.46749470107216
 11
225.64390859088394
 21
137.46748975227575
  0
LINE
  8
_0-0_0
  6
CONTINUOUS
 62
    7
 10
369.14005182884853
 20
127.68749262257765
 11
369.94390958064321
 21
130.68749014817945
  0
LINE
  8
_0-0_0
  6
CONTINUOUS
 62
    7
 10
369.94390958064321
 20
130.68749014817945
 11
370.74774258845571
 21
127.68749262257765
  0
LINE
  8
_0-0_0
  6
CONTINUOUS
 62
    7
 10
369.94390958064321
 20
130.68749014817945
 11
369.94390958064321
 21
127.68749262257765
  0
LINE
  8
_0-0_0
  6
CONTINUOUS
 62
    7
 10
370.74774258845571
 20
118.78749047809916
 11
369.94390958064321
 21
115.78749295249744
  0
LINE
  8
_0-0_0
  6
CONTINUOUS
 62
    7
 10
369.94390958064321
 20
115.78749295249744
 11
369.14005182884853
 21
118.78749047809916
  0
LINE
  8
_0-0_0
  6
CONTINUOUS
 62
    7
 10
369.94390958064321
 20
115.78749295249744
 11
369.94390958064321
 21
118.78749047809916
  0
LINE
  8
_0-0_0
  6
CONTINUOUS
 62
    7
 10
360.69391617903852
 20
130.68749014817945
 11
370.94391287984092
 21
130.68749014817945
  0
LINE
  8
_0-0_0
  6
CONTINUOUS
 62
    7
 10
360.69391617903852
 20
115.78749295249744
 11
370.94391287984092
 21
115.78749295249744
  0
LINE
  8
_0-0_0
  6
CONTINUOUS
 62
    7
 10
369.94390958064321
 20
130.68749014817945
 11
369.94390958064321
 21
115.78749295249744
  0
LINE
  8
_0-0_0
  6
CONTINUOUS
 62
    7
 10
297.79389671377237
 20
105.81133790340536
 11
300.79390661136529
 21
105.00749252360177
  0
LINE
  8
_0-0_0
  6
CONTINUOUS
 62
    7
 10
300.79390661136529
 20
105.00749252360177
 11
297.79389671377237
 21
104.20364714379807
  0
LINE
  8
_0-0_0
  6
CONTINUOUS
 62
    7
 10
300.79390661136529
 20
105.00749252360177
 11
297.79389671377237
 21
105.00749252360177
  0
LINE
  8
_0-0_0
  6
CONTINUOUS
 62
    7
 10
283.79390001297008
 20
104.20364714379807
 11
280.79389011537717
 21
105.00749252360177
  0
LINE
  8
_0-0_0
  6
CONTINUOUS
 62
    7
 10
280.79389011537717
 20
105.00749252360177
 11
283.79390001297008
 21
105.81133790340536
  0
LINE
  8
_0-0_0
  6
CONTINUOUS
 62
    7
 10
280.79389011537717
 20
105.00749252360177
 11
283.79390001297008
 21
105.00749252360177
  0
LINE
  8
_0-0_0
  6
CONTINUOUS
 62
    7
 10
300.79390661136529
 20
120.68749427217645
 11
300.79390661136529
 21
104.00748922440405
  0
LINE
  8
_0-0_0
  6
CONTINUOUS
 62
    7
 10
280.79389011537717
 20
120.98749031313935
 11
280.79389011537717
 21
104.00748922440405
  0
LINE
  8
_0-0_0
  6
CONTINUOUS
 62
    7
 10
300.79390661136529
 20
105.00749252360177
 11
280.79389011537717
 21
105.00749252360177
  0
LINE
  8
_0-0_0
  6
CONTINUOUS
 62
    7
 10
303.7939165089582
 20
104.20364714379807
 11
300.79390661136529
 21
105.00749252360177
  0
LINE
  8
_0-0_0
  6
CONTINUOUS
 62
    7
 10
300.79390661136529
 20
105.00749252360177
 11
303.7939165089582
 21
105.81133790340536
  0
LINE
  8
_0-0_0
  6
CONTINUOUS
 62
    7
 10
300.79390661136529
 20
105.00749252360177
 11
303.7939165089582
 21
105.00749252360177
  0
LINE
  8
_0-0_0
  6
CONTINUOUS
 62
    7
 10
305.79389836337134
 20
105.81133790340536
 11
308.79390826096426
 21
105.00749252360177
  0
LINE
  8
_0-0_0
  6
CONTINUOUS
 62
    7
 10
308.79390826096426
 20
105.00749252360177
 11
305.79389836337134
 21
104.20364714379807
  0
LINE
  8
_0-0_0
  6
CONTINUOUS
 62
    7
 10
308.79390826096426
 20
105.00749252360177
 11
305.79389836337134
 21
105.00749252360177
  0
LINE
  8
_0-0_0
  6
CONTINUOUS
 62
    7
 10
300.79390661136529
 20
120.68749427217645
 11
300.79390661136529
 21
104.00748922440405
  0
LINE
  8
_0-0_0
  6
CONTINUOUS
 62
    7
 10
308.79390826096426
 20
119.23749691153455
 11
308.79390826096426
 21
104.00748922440405
  0
LINE
  8
_0-0_0
  6
CONTINUOUS
 62
    7
 10
300.79390661136529
 20
105.00749252360177
 11
308.79390826096426
 21
105.00749252360177
  0
LINE
  8
_0-0_0
  6
CONTINUOUS
 62
    7
 10
252.39391024048274
 20
137.35424891744677
 11
249.39390034288982
 21
138.15809429725047
  0
LINE
  8
_0-0_0
  6
CONTINUOUS
 62
    7
 10
249.39390034288982
 20
138.15809429725047
 11
252.39391024048274
 21
138.96193967705406
  0
LINE
  8
_0-0_0
  6
CONTINUOUS
 62
    7
 10
249.39390034288982
 20
138.15809429725047
 11
252.39391024048274
 21
138.15809429725047
  0
LINE
  8
_0-0_0
  6
CONTINUOUS
 62
    7
 10
349.19390298224789
 20
138.96193967705406
 11
352.19391287984092
 21
138.15809429725047
  0
LINE
  8
_0-0_0
  6
CONTINUOUS
 62
    7
 10
352.19391287984092
 20
138.15809429725047
 11
349.19390298224789
 21
137.35424891744677
  0
LINE
  8
_0-0_0
  6
CONTINUOUS
 62
    7
 10
352.19391287984092
 20
138.15809429725047
 11
349.19390298224789
 21
138.15809429725047
  0
LINE
  8
_0-0_0
  6
CONTINUOUS
 62
    7
 10
249.39390034288982
 20
125.08749394225677
 11
249.39390034288982
 21
139.15809759644796
  0
LINE
  8
_0-0_0
  6
CONTINUOUS
 62
    7
 10
352.19391287984092
 20
125.08749394225677
 11
352.19391287984092
 21
139.15809759644796
  0
LINE
  8
_0-0_0
  6
CONTINUOUS
 62
    7
 10
249.39390034288982
 20
138.15809429725047
 11
352.19391287984092
 21
138.15809429725047
  0
LINE
  8
_0-0_0
  6
CONTINUOUS
 62
    7
 10
248.64391024048282
 20
145.04528483251227
 11
245.64390034288982
 21
145.84913021231586
  0
LINE
  8
_0-0_0
  6
CONTINUOUS
 62
    7
 10
245.64390034288982
 20
145.84913021231586
 11
248.64391024048282
 21
146.65297559211945
  0
LINE
  8
_0-0_0
  6
CONTINUOUS
 62
    7
 10
245.64390034288982
 20
145.84913021231586
 11
248.64391024048282
 21
145.84913021231586
  0
LINE
  8
_0-0_0
  6
CONTINUOUS
 62
    7
 10
352.94390298224789
 20
146.65297559211945
 11
355.94391287984092
 21
145.84913021231586
  0
LINE
  8
_0-0_0
  6
CONTINUOUS
 62
    7
 10
355.94391287984092
 20
145.84913021231586
 11
352.94390298224789
 21
145.04528483251227
  0
LINE
  8
_0-0_0
  6
CONTINUOUS
 62
    7
 10
355.94391287984092
 20
145.84913021231586
 11
352.94390298224789
 21
145.84913021231586
  0
LINE
  8
_0-0_0
  6
CONTINUOUS
 62
    7
 10
245.64390034288982
 20
132.46748562827867
 11
245.64390034288982
 21
146.84913351151346
  0
LINE
  8
_0-0_0
  6
CONTINUOUS
 62
    7
 10
355.94391287984092
 20
132.46748562827867
 11
355.94391287984092
 21
146.84913351151346
  0
LINE
  8
_0-0_0
  6
CONTINUOUS
 62
    7
 10
245.64390034288982
 20
145.84913021231586
 11
355.94391287984092
 21
145.84913021231586
  0
LINE
  8
_0-0_0
  6
CONTINUOUS
 62
    7
 10
341.168909910563
 20
108.92477421569427
 11
344.16889506417374
 21
108.12092883589057
  0
LINE
  8
_0-0_0
  6
CONTINUOUS
 62
    7
 10
344.16889506417374
 20
108.12092883589057
 11
341.168909910563
 21
107.31707108409586
  0
LINE
  8
_0-0_0
  6
CONTINUOUS
 62
    7
 10
344.16889506417374
 20
108.12092883589057
 11
341.168909910563
 21
108.12092883589057
  0
LINE
  8
_0-0_0
  6
CONTINUOUS
 62
    7
 10
348.79391650895832
 20
107.31707108409586
 11
345.7939066113654
 21
108.12092883589057
  0
LINE
  8
_0-0_0
  6
CONTINUOUS
 62
    7
 10
345.7939066113654
 20
108.12092883589057
 11
348.79391650895832
 21
108.92477421569427
  0
LINE
  8
_0-0_0
  6
CONTINUOUS
 62
    7
 10
345.7939066113654
 20
108.12092883589057
 11
348.79391650895832
 21
108.12092883589057
  0
LINE
  8
_0-0_0
  6
CONTINUOUS
 62
    7
 10
344.16889506417374
 20
122.23749443713635
 11
344.16889506417374
 21
107.12092553669297
  0
LINE
  8
_0-0_0
  6
CONTINUOUS
 62
    7
 10
345.7939066113654
 20
122.23749443713635
 11
345.7939066113654
 21
107.12092553669297
  0
LINE
  8
_0-0_0
  6
CONTINUOUS
 62
    7
 10
344.16889506417374
 20
108.12092883589057
 11
338.1689000129702
 21
108.12092883589057
  0
LINE
  8
_0-0_0
  6
CONTINUOUS
 62
    7
 10
344.16889506417374
 20
108.12092883589057
 11
345.7939066113654
 21
108.12092883589057
  0
LINE
  8
_0-0_0
  6
CONTINUOUS
 62
    7
 10
345.7939066113654
 20
108.12092883589057
 11
356.43260652954518
 21
108.12092883589057
  0
LINE
  8
_0-0_0
  6
CONTINUOUS
 62
    7
 10
350.98007208592196
 20
126.44403328188935
 11
343.81879245912717
 21
126.44403328188935
  0
LINE
  8
_0-0_0
  6
CONTINUOUS
 62
    7
 10
300.79390661136529
 20
123.23748536434286
 11
300.79390661136529
 21
123.48748618914226
  0
LINE
  8
_0-0_0
  6
CONTINUOUS
 62
    7
 10
300.79390661136529
 20
123.23748536434286
 11
300.54389341457488
 21
123.23748536434286
  0
LINE
  8
_0-0_0
  6
CONTINUOUS
 62
    7
 10
300.79390661136529
 20
123.23748536434286
 11
300.79390661136529
 21
122.98749691153455
  0
LINE
  8
_0-0_0
  6
CONTINUOUS
 62
    7
 10
300.79390661136529
 20
123.23748536434286
 11
301.04389506417374
 21
123.23748536434286
  0
LINE
  8
_0-0_0
  6
CONTINUOUS
 62
    7
 10
300.79390661136529
 20
123.73748701394166
 11
300.79390661136529
 21
124.78748552930276
  0
LINE
  8
_0-0_0
  6
CONTINUOUS
 62
    7
 10
300.29390496176654
 20
123.23748536434286
 11
299.24389407441436
 21
123.23748536434286
  0
LINE
  8
_0-0_0
  6
CONTINUOUS
 62
    7
 10
300.79390661136529
 20
122.73749608673515
 11
300.79390661136529
 21
121.68749757137417
  0
LINE
  8
_0-0_0
  6
CONTINUOUS
 62
    7
 10
301.29390826096414
 20
123.23748536434286
 11
302.34389440433426
 21
123.23748536434286
  0
LINE
  8
_0-0_0
  6
CONTINUOUS
 62
    7
 10
242.34389440433412
 20
115.78749295249744
 11
242.34389440433412
 21
116.03749377729685
  0
LINE
  8
_0-0_0
  6
CONTINUOUS
 62
    7
 10
242.34389440433412
 20
115.78749295249744
 11
242.09390595152584
 21
115.78749295249744
  0
LINE
  8
_0-0_0
  6
CONTINUOUS
 62
    7
 10
242.34389440433412
 20
115.78749295249744
 11
242.34389440433412
 21
115.53749212769796
  0
LINE
  8
_0-0_0
  6
CONTINUOUS
 62
    7
 10
242.34389440433412
 20
115.78749295249744
 11
242.59390760112464
 21
115.78749295249744
  0
LINE
  8
_0-0_0
  6
CONTINUOUS
 62
    7
 10
242.34389440433412
 20
116.03749377729685
 11
242.34389440433412
 21
116.23748701394166
  0
LINE
  8
_0-0_0
  6
CONTINUOUS
 62
    7
 10
242.09390595152584
 20
115.78749295249744
 11
241.89390034288982
 21
115.78749295249744
  0
LINE
  8
_0-0_0
  6
CONTINUOUS
 62
    7
 10
242.34389440433412
 20
115.53749212769796
 11
242.34389440433412
 21
115.33748651906205
  0
LINE
  8
_0-0_0
  6
CONTINUOUS
 62
    7
 10
242.59390760112464
 20
115.78749295249744
 11
242.79391320976063
 21
115.78749295249744
  0
LINE
  8
_0-0_0
  6
CONTINUOUS
 62
    7
 10
242.34389440433412
 20
130.68749014817945
 11
242.34389440433412
 21
130.93749097297885
  0
LINE
  8
_0-0_0
  6
CONTINUOUS
 62
    7
 10
242.34389440433412
 20
130.68749014817945
 11
242.09390595152584
 21
130.68749014817945
  0
LINE
  8
_0-0_0
  6
CONTINUOUS
 62
    7
 10
242.34389440433412
 20
130.68749014817945
 11
242.34389440433412
 21
130.43748932337996
  0
LINE
  8
_0-0_0
  6
CONTINUOUS
 62
    7
 10
242.34389440433412
 20
130.68749014817945
 11
242.59390760112464
 21
130.68749014817945
  0
LINE
  8
_0-0_0
  6
CONTINUOUS
 62
    7
 10
242.34389440433412
 20
130.93749097297885
 11
242.34389440433412
 21
131.13749658161487
  0
LINE
  8
_0-0_0
  6
CONTINUOUS
 62
    7
 10
242.09390595152584
 20
130.68749014817945
 11
241.89390034288982
 21
130.68749014817945
  0
LINE
  8
_0-0_0
  6
CONTINUOUS
 62
    7
 10
242.34389440433412
 20
130.43748932337996
 11
242.34389440433412
 21
130.23749608673515
  0
LINE
  8
_0-0_0
  6
CONTINUOUS
 62
    7
 10
242.59390760112464
 20
130.68749014817945
 11
242.79391320976063
 21
130.68749014817945
  0
LINE
  8
_0-0_0
  6
CONTINUOUS
 62
    7
 10
359.24389407441447
 20
130.68749014817945
 11
359.24389407441447
 21
130.93749097297885
  0
LINE
  8
_0-0_0
  6
CONTINUOUS
 62
    7
 10
359.24389407441447
 20
130.68749014817945
 11
358.99390562160613
 21
130.68749014817945
  0
LINE
  8
_0-0_0
  6
CONTINUOUS
 62
    7
 10
359.24389407441447
 20
130.68749014817945
 11
359.24389407441447
 21
130.43748932337996
  0
LINE
  8
_0-0_0
  6
CONTINUOUS
 62
    7
 10
359.24389407441447
 20
130.68749014817945
 11
359.49390727120488
 21
130.68749014817945
  0
LINE
  8
_0-0_0
  6
CONTINUOUS
 62
    7
 10
359.24389407441447
 20
130.93749097297885
 11
359.24389407441447
 21
131.13749658161487
  0
LINE
  8
_0-0_0
  6
CONTINUOUS
 62
    7
 10
358.99390562160613
 20
130.68749014817945
 11
358.79390001297008
 21
130.68749014817945
  0
LINE
  8
_0-0_0
  6
CONTINUOUS
 62
    7
 10
359.24389407441447
 20
130.43748932337996
 11
359.24389407441447
 21
130.23749608673515
  0
LINE
  8
_0-0_0
  6
CONTINUOUS
 62
    7
 10
359.49390727120488
 20
130.68749014817945
 11
359.69391287984092
 21
130.68749014817945
  0
LINE
  8
_0-0_0
  6
CONTINUOUS
 62
    7
 10
359.24389407441447
 20
115.78749295249744
 11
359.24389407441447
 21
116.03749377729685
  0
LINE
  8
_0-0_0
  6
CONTINUOUS
 62
    7
 10
359.24389407441447
 20
115.78749295249744
 11
358.99390562160613
 21
115.78749295249744
  0
LINE
  8
_0-0_0
  6
CONTINUOUS
 62
    7
 10
359.24389407441447
 20
115.78749295249744
 11
359.24389407441447
 21
115.53749212769796
  0
LINE
  8
_0-0_0
  6
CONTINUOUS
 62
    7
 10
359.24389407441447
 20
115.78749295249744
 11
359.49390727120488
 21
115.78749295249744
  0
LINE
  8
_0-0_0
  6
CONTINUOUS
 62
    7
 10
359.24389407441447
 20
116.03749377729685
 11
359.24389407441447
 21
116.23748701394166
  0
LINE
  8
_0-0_0
  6
CONTINUOUS
 62
    7
 10
358.99390562160613
 20
115.78749295249744
 11
358.79390001297008
 21
115.78749295249744
  0
LINE
  8
_0-0_0
  6
CONTINUOUS
 62
    7
 10
359.24389407441447
 20
115.53749212769796
 11
359.24389407441447
 21
115.33748651906205
  0
LINE
  8
_0-0_0
  6
CONTINUOUS
 62
    7
 10
359.49390727120488
 20
115.78749295249744
 11
359.69391287984092
 21
115.78749295249744
  0
LINE
  8
_0-0_0
  6
CONTINUOUS
 62
    7
 10
255.79390661136532
 20
123.23748536434286
 11
255.79390661136532
 21
123.48748618914226
  0
LINE
  8
_0-0_0
  6
CONTINUOUS
 62
    7
 10
255.79390661136532
 20
123.23748536434286
 11
255.54389341457482
 21
123.23748536434286
  0
LINE
  8
_0-0_0
  6
CONTINUOUS
 62
    7
 10
255.79390661136532
 20
123.23748536434286
 11
255.79390661136532
 21
122.98749691153455
  0
LINE
  8
_0-0_0
  6
CONTINUOUS
 62
    7
 10
255.79390661136532
 20
123.23748536434286
 11
256.04389506417363
 21
123.23748536434286
  0
LINE
  8
_0-0_0
  6
CONTINUOUS
 62
    7
 10
255.79390661136532
 20
123.48748618914226
 11
255.79390661136532
 21
123.71249559185557
  0
LINE
  8
_0-0_0
  6
CONTINUOUS
 62
    7
 10
255.54389341457482
 20
123.23748536434286
 11
255.31889638385272
 21
123.23748536434286
  0
LINE
  8
_0-0_0
  6
CONTINUOUS
 62
    7
 10
255.79390661136532
 20
122.98749691153455
 11
255.79390661136532
 21
122.76248750882135
  0
LINE
  8
_0-0_0
  6
CONTINUOUS
 62
    7
 10
256.04389506417363
 20
123.23748536434286
 11
256.26889209489582
 21
123.23748536434286
  0
LINE
  8
_0-0_0
  6
CONTINUOUS
 62
    7
 10
304.79389506417374
 20
123.23748536434286
 11
304.79389506417374
 21
123.48748618914226
  0
LINE
  8
_0-0_0
  6
CONTINUOUS
 62
    7
 10
304.79389506417374
 20
123.23748536434286
 11
304.54390661136529
 21
123.23748536434286
  0
LINE
  8
_0-0_0
  6
CONTINUOUS
 62
    7
 10
304.79389506417374
 20
123.23748536434286
 11
304.79389506417374
 21
122.98749691153455
  0
LINE
  8
_0-0_0
  6
CONTINUOUS
 62
    7
 10
304.79389506417374
 20
123.23748536434286
 11
305.04390826096426
 21
123.23748536434286
  0
LINE
  8
_0-0_0
  6
CONTINUOUS
 62
    7
 10
304.79389506417374
 20
123.48748618914226
 11
304.79389506417374
 21
123.63749658161487
  0
LINE
  8
_0-0_0
  6
CONTINUOUS
 62
    7
 10
304.54390661136529
 20
123.23748536434286
 11
304.39390859088394
 21
123.23748536434286
  0
LINE
  8
_0-0_0
  6
CONTINUOUS
 62
    7
 10
304.79389506417374
 20
122.98749691153455
 11
304.79389506417374
 21
122.83748651906205
  0
LINE
  8
_0-0_0
  6
CONTINUOUS
 62
    7
 10
305.04390826096426
 20
123.23748536434286
 11
305.19390628144561
 21
123.23748536434286
  0
LINE
  8
_0-0_0
  6
CONTINUOUS
 62
    7
 10
337.59389935313061
 20
123.23748536434286
 11
337.59389935313061
 21
123.48748618914226
  0
LINE
  8
_0-0_0
  6
CONTINUOUS
 62
    7
 10
337.59389935313061
 20
123.23748536434286
 11
337.34391090032227
 21
123.23748536434286
  0
LINE
  8
_0-0_0
  6
CONTINUOUS
 62
    7
 10
337.59389935313061
 20
123.23748536434286
 11
337.59389935313061
 21
122.98749691153455
  0
LINE
  8
_0-0_0
  6
CONTINUOUS
 62
    7
 10
337.59389935313061
 20
123.23748536434286
 11
337.84391254992113
 21
123.23748536434286
  0
LINE
  8
_0-0_0
  6
CONTINUOUS
 62
    7
 10
337.59389935313061
 20
123.48748618914226
 11
337.59389935313061
 21
123.63749658161487
  0
LINE
  8
_0-0_0
  6
CONTINUOUS
 62
    7
 10
337.34391090032227
 20
123.23748536434286
 11
337.19391287984092
 21
123.23748536434286
  0
LINE
  8
_0-0_0
  6
CONTINUOUS
 62
    7
 10
337.59389935313061
 20
122.98749691153455
 11
337.59389935313061
 21
122.83748651906205
  0
LINE
  8
_0-0_0
  6
CONTINUOUS
 62
    7
 10
337.84391254992113
 20
123.23748536434286
 11
337.99391057040248
 21
123.23748536434286
  0
LINE
  8
_0-0_0
  6
CONTINUOUS
 62
    7
 10
280.79389011537717
 20
123.23748536434286
 11
280.79389011537717
 21
123.48748618914226
  0
LINE
  8
_0-0_0
  6
CONTINUOUS
 62
    7
 10
280.79389011537717
 20
123.23748536434286
 11
280.54390166256894
 21
123.23748536434286
  0
LINE
  8
_0-0_0
  6
CONTINUOUS
 62
    7
 10
280.79389011537717
 20
123.23748536434286
 11
280.79389011537717
 21
122.98749691153455
  0
LINE
  8
_0-0_0
  6
CONTINUOUS
 62
    7
 10
280.79389011537717
 20
123.23748536434286
 11
281.04390331216769
 21
123.23748536434286
  0
LINE
  8
_0-0_0
  6
CONTINUOUS
 62
    7
 10
280.79389011537717
 20
123.73748701394166
 11
280.79389011537717
 21
124.48748948833986
  0
LINE
  8
_0-0_0
  6
CONTINUOUS
 62
    7
 10
280.2939132097606
 20
123.23748536434286
 11
279.54389836337134
 21
123.23748536434286
  0
LINE
  8
_0-0_0
  6
CONTINUOUS
 62
    7
 10
280.79389011537717
 20
122.73749608673515
 11
280.79389011537717
 21
121.98749361233695
  0
LINE
  8
_0-0_0
  6
CONTINUOUS
 62
    7
 10
281.29389176497602
 20
123.23748536434286
 11
282.04390661136529
 21
123.23748536434286
  0
LINE
  8
_0-0_0
  6
CONTINUOUS
 62
    7
 10
363.50503051603175
 20
103.33879547572377
 11
374.86088527215497
 21
103.33879547572377
  0
LINE
  8
_0-0_0
  6
CONTINUOUS
 62
    7
 10
280.08589055087134
 20
125.06376446326607
 11
279.00007512118384
 21
127.86037882665286
  0
LINE
  8
_0-0_0
  6
CONTINUOUS
 62
    7
 10
280.08589055087134
 20
125.06376446326607
 11
280.54385217460447
 21
128.02860079007135
  0
LINE
  8
_0-0_0
  6
CONTINUOUS
 62
    7
 10
299.87741425230718
 20
125.06376446326607
 11
297.97128632261968
 21
127.38038268671406
  0
LINE
  8
_0-0_0
  6
CONTINUOUS
 62
    7
 10
299.87741425230718
 20
125.06376446326607
 11
299.38495951729863
 21
128.02307051003547
  0
LINE
  8
_0-0_0
  6
CONTINUOUS
 62
    7
 10
315.99339259637384
 20
127.70263593972297
 11
315.56205549755634
 21
130.67146841966377
  0
LINE
  8
_0-0_0
  6
CONTINUOUS
 62
    7
 10
315.99339259637384
 20
127.70263593972297
 11
317.10424893611196
 21
130.48938982617776
  0
LINE
  8
_0-0_0
  6
CONTINUOUS
 62
    7
 10
330.77861483032655
 20
124.55718091438516
 11
330.26871558782227
 21
127.51353005527406
  0
LINE
  8
_0-0_0
  6
CONTINUOUS
 62
    7
 10
330.77861483032655
 20
124.55718091438516
 11
331.81521447929185
 21
127.37241512442526
  0
LINE
  8
_0-0_0
  6
CONTINUOUS
 62
    7
 10
340.91451702891186
 20
124.32148211133395
 11
340.28584667154269
 21
127.25486883668245
  0
LINE
  8
_0-0_0
  6
CONTINUOUS
 62
    7
 10
340.91451702891186
 20
124.32148211133395
 11
341.83677473583748
 21
127.17620771706666
  0
LINE
  8
_0-0_0
  6
CONTINUOUS
 62
    7
 10
363.50503051603175
 20
103.33879547572377
 11
360.30278805139915
 21
114.84974551267476
  0
LINE
  8
_0-0_0
  6
CONTINUOUS
 62
    7
 10
243.14203629622602
 20
114.09191156789015
 11
244.44542556195663
 21
111.38984396073226
  0
LINE
  8
_0-0_0
  6
CONTINUOUS
 62
    7
 10
243.14203629622602
 20
114.09191156789015
 11
242.91976110355293
 21
111.10015378838216
  0
LINE
  8
_0-0_0
  6
CONTINUOUS
 62
    7
 10
256.17672076096414
 20
122.27649095318367
 11
257.5085408623155
 21
119.58832946405775
  0
LINE
  8
_0-0_0
  6
CONTINUOUS
 62
    7
 10
256.17672076096414
 20
122.27649095318367
 11
255.98601888965922
 21
119.28256807522754
  0
LINE
  8
_0-0_0
  6
CONTINUOUS
 62
    7
 10
360.30278805139915
 20
114.84974551267476
 11
361.82748749449456
 21
112.26607786064775
  0
LINE
  8
_0-0_0
  6
CONTINUOUS
 62
    7
 10
360.30278805139915
 20
114.84974551267476
 11
360.33139209489582
 21
111.84988407897546
  0
CIRCLE
  8
_0-0_0
  6
CONTINUOUS
 62
    7
 10
242.34389440433412
 20
115.78749295249744
 40
0.200000002577498
  0
CIRCLE
  8
_0-0_0
  6
CONTINUOUS
 62
    7
 10
242.34389440433412
 20
130.68749014817945
 40
0.200000002577498
  0
CIRCLE
  8
_0-0_0
  6
CONTINUOUS
 62
    7
 10
359.24389407441447
 20
130.68749014817945
 40
0.200000002577498
  0
CIRCLE
  8
_0-0_0
  6
CONTINUOUS
 62
    7
 10
359.24389407441447
 20
115.78749295249744
 40
0.200000002577498
  0
CIRCLE
  8
_0-0_0
  6
CONTINUOUS
 62
    7
 10
300.79390661136529
 20
123.23748536434286
 40
1.3000000167537371
  0
ARC
  8
_0-0_0
  6
CONTINUOUS
 62
    7
 10
261.19390958064321
 20
123.23748536434286
 40
0.6000000077324945
 50
270
 51
0
  0
ARC
  8
_0-0_0
  6
CONTINUOUS
 62
    7
 10
261.19390958064321
 20
123.23748536434286
 40
0.6000000077324945
 50
0
 51
90
  0
ARC
  8
_0-0_0
  6
CONTINUOUS
 62
    7
 10
260.39391189008154
 20
123.23748536434286
 40
0.6000000077324945
 50
90
 51
180
  0
ARC
  8
_0-0_0
  6
CONTINUOUS
 62
    7
 10
260.39391189008154
 20
123.23748536434286
 40
0.6000000077324945
 50
180
 51
270
  0
ARC
  8
_0-0_0
  6
CONTINUOUS
 62
    7
 10
341.19390133264926
 20
123.23748536434286
 40
0.6000000077324945
 50
270
 51
0
  0
ARC
  8
_0-0_0
  6
CONTINUOUS
 62
    7
 10
341.19390133264926
 20
123.23748536434286
 40
0.6000000077324945
 50
0
 51
90
  0
ARC
  8
_0-0_0
  6
CONTINUOUS
 62
    7
 10
340.39390364208748
 20
123.23748536434286
 40
0.6000000077324945
 50
90
 51
180
  0
ARC
  8
_0-0_0
  6
CONTINUOUS
 62
    7
 10
340.39390364208748
 20
123.23748536434286
 40
0.6000000077324945
 50
180
 51
270
  0
CIRCLE
  8
_0-0_0
  6
CONTINUOUS
 62
    7
 10
255.79390661136532
 20
123.23748536434286
 40
0.2250000028996853
  0
ARC
  8
_0-0_0
  6
CONTINUOUS
 62
    7
 10
344.16889506417374
 20
123.23748536434286
 40
0.4500000057993707
 50
29.999984741210937
 51
330
  0
ARC
  8
_0-0_0
  6
CONTINUOUS
 62
    7
 10
345.7939066113654
 20
123.23748536434286
 40
0.2250000028996853
 50
270
 51
90
  0
ARC
  8
_0-0_0
  6
CONTINUOUS
 62
    7
 10
331.19389308465497
 20
123.23748536434286
 40
0.6000000077324945
 50
270
 51
90
  0
ARC
  8
_0-0_0
  6
CONTINUOUS
 62
    7
 10
330.39389539409342
 20
123.23748536434286
 40
0.6000000077324945
 50
90
 51
270
  0
ARC
  8
_0-0_0
  6
CONTINUOUS
 62
    7
 10
271.19389308465497
 20
123.23748536434286
 40
0.6000000077324945
 50
270
 51
90
  0
ARC
  8
_0-0_0
  6
CONTINUOUS
 62
    7
 10
270.39389539409342
 20
123.23748536434286
 40
0.6000000077324945
 50
90
 51
270
  0
CIRCLE
  8
_0-0_0
  6
CONTINUOUS
 62
    7
 10
280.79389011537717
 20
123.23748536434286
 40
1.0000000128874891
  0
TEXT
  8
_0-0_0
 62
    7
 10
364.92003576175603
 20
103.48838522049786
 40
3
 41
1
 50
0
  1
4-C3
  0
TEXT
  8
_0-0_0
 62
    7
 10
297.8099291646804
 20
93.613631010721662
 40
3
 41
1
 50
0
  1
600
  0
TEXT
  8
_0-0_0
 62
    7
 10
312.52980254147508
 20
105.61363348511986
 40
3
 41
1
 50
0
  1
150
  0
TEXT
  8
_0-0_0
 62
    7
 10
327.68853693018127
 20
99.002858800523171
 40
3
 41
1
 50
90.000002504478232
  1
60
  0
TEXT
  8
_0-0_0
 62
    7
 10
234.55542920116812
 20
119.47935531657055
 40
3
 41
1
 50
90.000002504478147
  1
163
  0
TEXT
  8
_0-0_0
 62
    7
 10
225.03775549778732
 20
117.74382600979797
 40
3
 41
1
 50
90.000002504478147
  1
164.6
  0
TEXT
  8
_0-0_0
 62
    7
 10
369.33778113317817
 20
119.27620722218705
 40
3
 41
1
 50
90.000002504478147
  1
149
  0
TEXT
  8
_0-0_0
 62
    7
 10
286.66321054664832
 20
105.61363348511986
 40
3
 41
1
 50
0
  1
200
  0
TEXT
  8
_0-0_0
 62
    7
 10
302.57079754648987
 20
105.61363348511986
 40
3
 41
1
 50
0
  1
80
  0
TEXT
  8
_0-0_0
 62
    7
 10
296.57494216351904
 20
138.76423525876857
 40
3
 41
1
 50
0
  1
1028
  0
TEXT
  8
_0-0_0
 62
    7
 10
296.57494216351904
 20
146.45527117383395
 40
3
 41
1
 50
0
  1
1103
  0
TEXT
  8
_0-0_0
 62
    7
 10
349.90841103888852
 20
108.72705742541757
 40
3
 41
1
 50
0
  1
23
  0
TEXT
  8
_0-0_0
 62
    7
 10
106.16246805963735
 20
103.16760033061985
 40
3
 41
1
 50
0
  1
1140
  0
TEXT
  8
_0-0_0
 62
    7
 10
183.26424693936792
 20
120.61249773633395
 40
3
 41
1
 50
90.000002499999852
  1
120
  0
TEXT
  8
_0-0_0
 62
    7
 10
20.618058140213549
 20
247.42773029677539
 40
3
 41
1
 50
0
  1
取付図
  0
TEXT
  8
_0-0_0
 62
    7
 10
217.09320817122602
 20
238.05557585473559
 40
3
 41
1
 50
0
  1
取付け寸法 (取付け用ベース板金)
  0
TEXT
  8
_0-0_0
 62
    7
 10
340.69769376033065
 20
224.88984725992987
 40
3
 41
1
 50
0
  1
ボルト引き込み代 9～12mm
  0
TEXT
  8
_0-0_0
 62
    7
 10
325.17510910291929
 20
191.93031851732005
 40
3
 41
1
 50
0
  1
別置型電源用穴寸法
  0
TEXT
  8
_0-0_0
 62
    7
 10
242.56985232636742
 20
181.18356162859536
 40
3
 41
1
 50
0
  1
φ26穴(電源用)
  0
TEXT
  8
_0-0_0
 62
    7
 10
242.56985232636748
 20
167.76614961819627
 40
3
 41
1
 50
0
  1
φ20穴(制御用)
  0
TEXT
  8
_0-0_0
 62
    7
 10
337.24433699169697
 20
181.18356162859536
 40
3
 41
1
 50
0
  1
2-12x20小判穴(取付けボルト用)
  0
TEXT
  8
_0-0_0
 62
    7
 10
344.64534869065176
 20
167.76614961819627
 40
3
 41
1
 50
0
  1
2-12x20小判穴(取付けボルト用)
  0
TEXT
  8
_0-0_0
 62
    7
 10
22.233945034645814
 20
154.67581593734747
 40
3
 41
1
 50
0
  1
本体外形
  0
TEXT
  8
_0-0_0
 62
    7
 10
270.91770157942915
 20
57.024048722134268
 40
3
 41
1
 50
0
  1
φ4.5穴、片側ダルマ穴(木ネジ取付け用)
  0
TEXT
  8
_0-0_0
 62
    7
 10
257.49701181617968
 20
47.572033077339086
 40
3
 41
1
 50
0
  1
4-M4,バーリング加工
  0
LINE
  8
_0-0_0
  6
CONTINUOUS
 62
    7
 10
190.12066821794264
 20
263.99999655904003
 11
415.00000418843445
 21
263.99999655904003
  0
LINE
  8
_0-0_0
  6
CONTINUOUS
 62
    7
 10
190.12066821794264
 20
270.99999800243899
 11
415.00000418843445
 21
270.99999800243899
  0
LINE
  8
_0-0_0
  6
CONTINUOUS
 62
    7
 10
190.12066821794264
 20
277.99999635284018
 11
415.00000418843445
 21
277.99999635284018
  0
LINE
  8
_0-0_0
  6
CONTINUOUS
 62
    7
 10
190.12066821794264
 20
284.99999470324133
 11
415.00000418843445
 21
284.99999470324133
  0
LINE
  8
_0-0_0
  6
CONTINUOUS
 62
    7
 10
190.12066821794264
 20
291.9999992396381
 11
415.00000418843445
 21
291.9999992396381
  0
LINE
  8
_0-0_0
  6
CONTINUOUS
 62
    7
 10
361.38751474586718
 20
291.9999992396381
 11
361.38751474586718
 21
256.99999820863883
  0
LINE
  8
_0-0_0
  6
CONTINUOUS
 62
    7
 10
337.04366741953686
 20
291.9999992396381
 11
337.04366741953686
 21
256.99999820863883
  0
TEXT
  8
_0-0_0
 62
    7
 10
341.12694164224581
 20
279.68474605921153
 40
3
 41
1
 50
0
  1
消費電力
  0
TEXT
  8
_0-0_0
 62
    7
 10
341.12694164224581
 20
286.74627032151102
 40
3
 41
1
 50
0
  1
入力電圧
  0
TEXT
  8
_0-0_0
 62
    7
 10
364.05117556855498
 20
286.74627032151102
 40
3
 41
1
 50
0
  1
AC100/200V　50/60Hz
  0
TEXT
  8
_0-0_0
 62
    7
 10
325.94434022906626
 20
279.68474605921153
 40
3
 41
1
 50
0
  1
1、2
  0
TEXT
  8
_0-0_0
 62
    7
 10
364.05117556855498
 20
279.68474605921153
 40
3
 41
1
 50
0
  1
64W、128W
  0
TEXT
  8
_0-0_0
 62
    7
 10
197.01994330174222
 20
272.78972405356336
 40
3
 41
1
 50
0
  1
2
  0
TEXT
  8
_0-0_0
 62
    7
 10
207.42767134228279
 20
272.78972405356336
 40
3
 41
1
 50
0
  1
取付け用ベース板金
  0
TEXT
  8
_0-0_0
 62
    7
 10
258.94403659975228
 20
272.78972405356336
 40
3
 41
1
 50
0
  1
鋼板SECC、t=1
  0
TEXT
  8
_0-0_0
 62
    7
 10
328.70866029326987
 20
272.78972405356336
 40
3
 41
1
 50
0
  1
1
  0
TEXT
  8
_0-0_0
 62
    7
 10
346.06582565565373
 20
272.78972405356336
 40
3
 41
1
 50
0
  1
力率
  0
TEXT
  8
_0-0_0
 62
    7
 10
364.6597793811078
 20
272.78972405356336
 40
3
 41
1
 50
0
  1
高力率
  0
TEXT
  8
_0-0_0
 62
    7
 10
328.70866029326987
 20
266.04979423574503
 40
3
 41
1
 50
0
  1
1
  0
TEXT
  8
_0-0_0
 62
    7
 10
343.59638364894988
 20
266.04979423574503
 40
3
 41
1
 50
0
  1
色温度
  0
TEXT
  8
_0-0_0
 62
    7
 10
364.05117061975852
 20
266.04979423574503
 40
3
 41
1
 50
0
  1
3500K、4250K、5000K
  0
TEXT
  8
_0-0_0
 62
    7
 10
346.06582565565373
 20
258.84527759294258
 40
3
 41
1
 50
0
  1
重量
  0
TEXT
  8
_0-0_0
 62
    7
 10
364.33927965164207
 20
258.84527759294258
 40
3
 41
1
 50
0
  1
4.0kg
  0
TEXT
  8
_0-0_0
 62
    7
 10
194.49753061500763
 20
286.7542974736067
 40
3
 41
1
 50
0
  1
No.
  0
TEXT
  8
_0-0_0
 62
    7
 10
223.52708235302492
 20
286.7542974736067
 40
3
 41
1
 50
0
  1
部品名
  0
TEXT
  8
_0-0_0
 62
    7
 10
284.90021748156175
 20
286.7542974736067
 40
3
 41
1
 50
0
  1
材質
  0
TEXT
  8
_0-0_0
 62
    7
 10
325.00449687081425
 20
286.7542974736067
 40
3
 41
1
 50
0
  1
数量
  0
LINE
  8
_0-0_0
  6
CONTINUOUS
 62
    7
 10
190.12066821794264
 20
291.9999992396381
 11
190.12066821794264
 21
263.99999655904003
  0
TEXT
  8
_0-0_0
 62
    7
 10
197.01994330174222
 20
280.00213625886045
 40
3
 41
1
 50
0
  1
1
  0
TEXT
  8
_0-0_0
 62
    7
 10
207.42768000267665
 20
280.00213625886045
 40
3
 41
1
 50
0
  1
導光板ベースライト本体
  0
TEXT
  8
_0-0_0
 62
    7
 10
258.94403742455154
 20
280.00213625886045
 40
3
 41
1
 50
0
  1
LED導光板、アルミフレーム
  0
TEXT
  8
_0-0_0
 62
    7
 10
197.01994330174222
 20
265.55565179940339
 40
3
 41
1
 50
0
  1
3
  0
TEXT
  8
_0-0_0
 62
    7
 10
207.73198891974806
 20
265.55565179940339
 40
3
 41
1
 50
0
  1
電源（別置型）
  0
TEXT
  8
_0-0_0
 62
    7
 10
259.20428143320862
 20
265.55565179940339
 40
3
 41
1
 50
0
  1
パナソニック製LG91819300-IL1
  0
LINE
  8
_0-0_0
  6
CONTINUOUS
 62
    7
 10
204.12066821794264
 20
291.9999992396381
 11
204.12066821794264
 21
263.99999655904003
  0
LINE
  8
_0-0_0
  6
CONTINUOUS
 62
    7
 10
256.55607075304613
 20
291.9999992396381
 11
256.55607075304613
 21
263.99999655904003
  0
LINE
  8
_0-0_0
  6
CONTINUOUS
 62
    7
 10
321.04366741953686
 20
291.9999992396381
 11
321.04366741953686
 21
263.99999655904003
  0
LINE
  8
_0-0_0
  6
CONTINUOUS
 62
    7
 10
337.04366741953686
 20
256.99999820863883
 11
415.00000418843445
 21
256.99999820863883
  0
TEXT
  8
_0-0_0
 62
    7
 10
8.6857652242027825
 20
37.803330344199381
 40
3
 41
1
 50
0
  1
<100V入力時>　接続台数：１１台（128W）/２２台（64W）
  0
TEXT
  8
_0-0_0
 62
    7
 10
8.6857652242027825
 20
31.271533283947647
 40
3
 41
1
 50
0
  1
<200V入力時>　接続台数：２１台（128W）/４３台（64W）
  0
TEXT
  8
_0-0_0
 62
    7
 10
8.6857652242027825
 20
45.331503227201367
 40
3
 41
1
 50
0
  1
本器具同士の連結数
  0
TEXT
  8
_0-0_0
 62
    7
 10
325.75469370828648
 20
14.001019022943069
 40
3
 41
1
 50
0
  1
LGP01-018120
  0
TEXT
  8
_0-0_0
 62
    7
 10
286.41490110734173
 20
21.042789477053063
 40
3
 41
1
 50
0
  1
Scale
  0
TEXT
  8
_0-0_0
 62
    7
 10
286.69794533700315
 20
10.570152979581394
 40
3
 41
1
 50
0
  1
1：10
  0
ENDSEC
  0
EOF
