  0
SECTION
  2
HEADER
  9
$ACADVER
  1
AC1009
  9
$INSBASE
 10
0
 20
0
 30
0
  9
$EXTMIN
 10
0
 20
0
  9
$EXTMAX
 10
420
 20
297
  9
$LIMMIN
 10
0
 20
0
  9
$LIMMAX
 10
420
 20
297
  9
$LTSCALE
 40
1
  0
ENDSEC
  0
SECTION
  2
TABLES
  0
TABLE
  2
LTYPE
 70
     9
  0
LTYPE
  2
CONTINUOUS
 70
    64
  3
実線
 72
    65
 73
     0
 40
0.0
  0
LTYPE
  2
DASHED1
 70
    64
  3
--  --  --  --  --  --  --  --  
 72
    65
 73
     2
 40
2.5
 49
1.25
 49
-1.25
  0
LTYPE
  2
DASHED2
 70
    64
  3
----    ----    ----    ----    
 72
    65
 73
     2
 40
5.0
 49
2.5
 49
-2.5
  0
LTYPE
  2
DASHED3
 70
    64
  3
------  ------  ------  ------  
 72
    65
 73
     2
 40
5.0
 49
3.75
 49
-1.25
  0
LTYPE
  2
CENTER1
 70
    64
  3
----- - ----- - ----- - ----- - 
 72
    65
 73
     4
 40
10.0
 49
6.25
 49
-1.25
 49
1.25
 49
-1.25
  0
LTYPE
  2
CENTER2
 70
    64
  3
----------  --  ----------  --  
 72
    65
 73
     4
 40
20.0
 49
12.5
 49
-2.5
 49
2.5
 49
-2.5
  0
LTYPE
  2
PHANTOM1
 70
    64
  3
--- - - --- - - --- - - --- - - 
 72
    65
 73
     6
 40
10.0
 49
3.25
 49
-1.25
 49
1.25
 49
-1.25
 49
1.25
 49
-1.25
  0
LTYPE
  2
PHANTOM2
 70
    64
  3
--------  -  -  --------  -  -  
 72
    65
 73
     6
 40
20.0
 49
10.0
 49
-2.5
 49
1.25
 49
-2.5
 49
1.25
 49
-2.5
  0
LTYPE
  2
DOT
 70
    64
  3
-   -   -   -   -   -   -   -   
 72
    65
 73
     2
 40
2.5
 49
0.625
 49
-1.875
  0
LTYPE
  2
DUMMY
 70
    64
  3
ダミー
 72
    65
 73
     0
 40
0.0
  0
LTYPE
  2
RAND1
 70
    64
  3
ランダム線1
 72
    65
 73
     4
 40
10.0
 49
1.0
 49
-2.0
 49
3.0
 49
-4.0
  0
LTYPE
  2
RAND2
 70
    64
  3
ランダム線2
 72
    65
 73
     4
 40
14.0
 49
2.0
 49
-3.0
 49
4.0
 49
-5.0
  0
LTYPE
  2
RAND3
 70
    64
  3
ランダム線3
 72
    65
 73
     4
 40
18.0
 49
3.0
 49
-4.0
 49
5.0
 49
-6.0
  0
LTYPE
  2
RAND4
 70
    64
  3
ランダム線4
 72
    65
 73
     4
 40
22.0
 49
4.0
 49
-5.0
 49
6.0
 49
-7.0
  0
LTYPE
  2
RAND5
 70
    64
  3
ランダム線5
 72
    65
 73
     4
 40
26.0
 49
5.0
 49
-6.0
 49
7.0
 49
-8.0
  0
LTYPE
  2
LONG1
 70
    64
  3
----------  --  ----------  --  
 72
    65
 73
     4
 40
40.0
 49
32.5
 49
-2.5
 49
2.5
 49
-2.5
  0
LTYPE
  2
LONG2
 70
    64
  3
--------  -  -  --------  -  -  
 72
    65
 73
     6
 40
40.0
 49
30.0
 49
-2.5
 49
1.25
 49
-2.5
 49
1.25
 49
-2.5
  0
LTYPE
  2
LONG3
 70
    64
  3
+++++++++++++++..+++++++++++++++
 72
    65
 73
     2
 40
40.0
 49
37.5
 49
-2.5
  0
LTYPE
  2
LONG4
 70
    64
  3
+++++++++++++++..+++++++++++++++
 72
    65
 73
     2
 40
80.0
 49
75.0
 49
-5.0
  0
LTYPE
  2
LONG5
 70
    64
  3
----------  --  ----------  --  
 72
    65
 73
     4
 40
60.0
 49
37.5
 49
-7.5
 49
7.5
 49
-7.5
  0
LTYPE
  2
dashed
 70
   64
  3
-------   -------------   ------
 72
   65
 73
    2
 40
7.5
 49
6
 49
-1.5
  0
LTYPE
  2
dashed_spaced
 70
   64
  3
----        --------        ----
 72
   65
 73
    2
 40
12
 49
6
 49
-6
  0
LTYPE
  2
long_dashed_dotted
 70
   64
  3
------------- --- --------------
 72
   65
 73
    4
 40
15.25
 49
12
 49
-1.5
 49
0.25
 49
-1.5
  0
LTYPE
  2
long_dashed_double-dotted
 70
   64
  3
----------- --- --- ------------
 72
   65
 73
    6
 40
17
 49
12
 49
-1.5
 49
0.25
 49
-1.5
 49
0.25
 49
-1.5
  0
LTYPE
  2
long_dashed_triplicate-dotted
 70
   64
  3
--------- --- --- --- ----------
 72
   65
 73
    8
 40
18.75
 49
12
 49
-1.5
 49
0.25
 49
-1.5
 49
0.25
 49
-1.5
 49
0.25
 49
-1.5
  0
LTYPE
  2
dotted
 70
   64
  3
   -       -       -       -    
 72
   65
 73
    2
 40
1.75
 49
0.25
 49
-1.5
  0
LTYPE
  2
chain
 70
   64
  3
-------------- -- --------------
 72
   65
 73
    4
 40
18.5
 49
12
 49
-1.5
 49
3.5
 49
-1.5
  0
LTYPE
  2
chain_double_dash
 70
   64
  3
------------ -- -- -------------
 72
   65
 73
    6
 40
23.5
 49
12
 49
-1.5
 49
3.5
 49
-1.5
 49
3.5
 49
-1.5
  0
LTYPE
  2
dashed_dotted
 70
   64
  3
-----------     -     ----------
 72
   65
 73
    4
 40
9.25
 49
6
 49
-1.5
 49
0.25
 49
-1.5
  0
LTYPE
  2
double-dashed_dotted
 70
   64
  3
------   -----------   -   -----
 72
   65
 73
    6
 40
16.75
 49
6
 49
-1.5
 49
6
 49
-1.5
 49
0.25
 49
-1.5
  0
LTYPE
  2
dashed_double-dotted
 70
   64
  3
---------    -    -    ---------
 72
   65
 73
    6
 40
11
 49
6
 49
-1.5
 49
0.25
 49
-1.5
 49
0.25
 49
-1.5
  0
LTYPE
  2
double-dashed_double-dotted
 70
   64
  3
-----   ---------   -   -   ----
 72
   65
 73
    8
 40
18.5
 49
6
 49
-1.5
 49
6
 49
-1.5
 49
0.25
 49
-1.5
 49
0.25
 49
-1.5
  0
LTYPE
  2
dashed_triplicate-dotted
 70
   64
  3
-------    -    -    -    ------
 72
   65
 73
    8
 40
12.75
 49
6
 49
-1.5
 49
0.25
 49
-1.5
 49
0.25
 49
-1.5
 49
0.25
 49
-1.5
  0
LTYPE
  2
double-dashed_triplicate-dotted
 70
   64
  3
-----  ---------  -  -  -  -----
 72
   65
 73
   10
 40
20.25
 49
6
 49
-1.5
 49
6
 49
-1.5
 49
0.25
 49
-1.5
 49
0.25
 49
-1.5
 49
0.25
 49
-1.5
  0
LTYPE
  2
undefined
 70
   64
  3
--------------------------------
 72
   65
 73
    0
 40
0
  0
ENDTAB
  0
TABLE
  2
STYLE
  5
3
100
AcDbSymbolTable
 70
     1
  0
STYLE
  5
10
100
AcDbSymbolTableRecord
100
AcDbTextStyleTableRecord
  2
STANDARD
 70
     0
 40
0.0
 41
1.0
 50
0.0
 71
     0
 42
0.2
  3
txt
  4
bigfont.shx
  0
STYLE
  5
26
100
AcDbSymbolTableRecord
100
AcDbTextStyleTableRecord
  2
TATEGAKI
 70
    68
 40
0.0
 41
1.0
 50
0.0
 71
     0
 42
1.0
  3
txt
  4
bigfont.shx
  0
ENDTAB
  0
TABLE
  2
LAYER
 70
    2
  0
LAYER
  2
_0-0_0
 70
   64
 62
    7
  6
CONTINUOUS
  0
LAYER
  2
ADD_LINE
 70
   64
 62
    7
  6
CONTINUOUS
  0
ENDTAB
  0
ENDSEC
  0
SECTION
  2
BLOCKS
  0
ENDSEC
  0
SECTION
  2
ENTITIES
  0
TEXT
  8
_0-0_0
 62
    7
 10
327.64289139564812
 20
14.122921257315937
 40
3
 41
1
 50
0
  1
LGP01-018063
  0
LINE
  8
_0-0_0
  6
CONTINUOUS
 62
    7
 10
1021.9528920794438
 20
212.05950316825113
 11
1021.9528920794438
 21
240.4595031682511
  0
LINE
  8
_0-0_0
  6
CONTINUOUS
 62
    7
 10
1011.9528920794438
 20
49.959503168251103
 11
818.45289207944381
 21
49.959503168251103
  0
LINE
  8
_0-0_0
  6
CONTINUOUS
 62
    7
 10
781.95289207944381
 20
192.4595031682511
 11
1021.9528920794438
 21
192.4595031682511
  0
LINE
  8
_0-0_0
  6
CONTINUOUS
 62
    7
 10
1021.9528920794438
 20
260.05950316825107
 11
781.95289207944381
 21
260.05950316825107
  0
LINE
  8
_0-0_0
  6
CONTINUOUS
 62
    7
 10
781.95289207944381
 20
260.05950316825107
 11
781.95289207944381
 21
192.4595031682511
  0
LINE
  8
_0-0_0
  6
CONTINUOUS
 62
    7
 10
1011.9528920794438
 20
2.5595031682510978
 11
1011.9528920794438
 21
49.959503168251103
  0
LINE
  8
_0-0_0
  6
CONTINUOUS
 62
    7
 10
1011.9528920794438
 20
2.5595031682510978
 11
1021.9528920794438
 21
2.5595031682510978
  0
LINE
  8
_0-0_0
  6
CONTINUOUS
 62
    7
 10
781.95289207944381
 20
4.1595031682510921
 11
791.95289207944381
 21
4.1595031682510921
  0
LINE
  8
_0-0_0
  6
CONTINUOUS
 62
    7
 10
1021.9528920794438
 20
2.5595031682510978
 11
1021.9528920794438
 21
14.159503168251092
  0
LINE
  8
_0-0_0
  6
CONTINUOUS
 62
    7
 10
1020.3528920794438
 20
4.1595031682510921
 11
1020.3528920794438
 21
12.559503168251098
  0
LINE
  8
_0-0_0
  6
CONTINUOUS
 62
    7
 10
1013.5528920794438
 20
4.1595031682510921
 11
1020.3528920794438
 21
4.1595031682510921
  0
LINE
  8
_0-0_0
  6
CONTINUOUS
 62
    7
 10
1013.5528920794438
 20
4.1595031682510921
 11
1013.5528920794438
 21
12.559503168251098
  0
LINE
  8
_0-0_0
  6
CONTINUOUS
 62
    7
 10
781.95289207944381
 20
2.5595031682510978
 11
793.55289207944384
 21
2.5595031682510978
  0
LINE
  8
_0-0_0
  6
CONTINUOUS
 62
    7
 10
793.55289207944384
 20
12.559503168251098
 11
1020.3528920794438
 21
12.559503168251098
  0
LINE
  8
_0-0_0
  6
CONTINUOUS
 62
    7
 10
781.95289207944381
 20
2.5595031682510978
 11
781.95289207944381
 21
4.1595031682510921
  0
LINE
  8
_0-0_0
  6
CONTINUOUS
 62
    7
 10
791.95289207944381
 20
14.159503168251092
 11
793.55289207944384
 21
14.159503168251092
  0
LINE
  8
_0-0_0
  6
CONTINUOUS
 62
    7
 10
818.45289207944381
 20
14.159503168251092
 11
1021.9528920794438
 21
14.159503168251092
  0
LINE
  8
_0-0_0
  6
CONTINUOUS
 62
    7
 10
793.55289207944384
 20
14.159503168251121
 11
793.55289207944384
 21
2.5595031682510978
  0
LINE
  8
_0-0_0
  6
CONTINUOUS
 62
    7
 10
791.95289207944381
 20
14.159503168251121
 11
791.95289207944381
 21
4.1595031682510921
  0
LINE
  8
_0-0_0
  6
CONTINUOUS
 62
    7
 10
793.55289207944384
 20
14.159503168251121
 11
793.55289207944384
 21
29.159503168251121
  0
LINE
  8
_0-0_0
  6
CONTINUOUS
 62
    7
 10
793.55289207944384
 20
29.159503168251121
 11
808.55289207944384
 21
29.159503168251121
  0
LINE
  8
_0-0_0
  6
CONTINUOUS
 62
    7
 10
818.45289207944381
 20
15.759503168251086
 11
803.44153690600854
 21
15.759503168251086
  0
LINE
  8
_0-0_0
  6
CONTINUOUS
 62
    7
 10
818.45289207944381
 20
49.959503168251103
 11
808.55289207944384
 21
22.759476715650351
  0
LINE
  8
_0-0_0
  6
CONTINUOUS
 62
    7
 10
808.55289207944384
 20
29.159503168251121
 11
808.55289207944384
 21
22.759476715650351
  0
LINE
  8
_0-0_0
  6
CONTINUOUS
 62
    7
 10
803.44153690600854
 20
15.759503168251086
 11
803.44153690600854
 21
22.759476715650351
  0
LINE
  8
_0-0_0
  6
CONTINUOUS
 62
    7
 10
808.55289207944384
 20
22.759476715650351
 11
803.44153690600854
 21
22.759476715650351
  0
LINE
  8
_0-0_0
  6
CONTINUOUS
 62
    7
 10
806.44153690600854
 20
15.759503168251086
 11
806.44153690600854
 21
22.759476715650351
  0
LINE
  8
_0-0_0
  6
CONTINUOUS
 62
    7
 10
818.45289207944381
 20
12.559503168251098
 11
818.45289207944381
 21
15.759503168251086
  0
LINE
  8
_0-0_0
  6
CONTINUOUS
 62
    7
 10
818.45289207944381
 20
192.4595031682511
 11
818.45289207944381
 21
260.05950316825107
  0
LINE
  8
_0-0_0
  6
CONTINUOUS
 62
    7
 10
1011.9528920794438
 20
192.4595031682511
 11
1011.9528920794438
 21
260.05950316825107
  0
CIRCLE
  8
_0-0_0
  6
CONTINUOUS
 62
    7
 10
1017.4528920794438
 20
250.25950316825111
 40
2.5
  0
CIRCLE
  8
_0-0_0
  6
CONTINUOUS
 62
    7
 10
1017.4528920794438
 20
202.25950316825111
 40
2.5
  0
LINE
  8
_0-0_0
  6
CONTINUOUS
 62
    7
 10
786.45289207944381
 20
250.25950316825111
 11
786.45289207944381
 21
255.25950316825111
  0
LINE
  8
_0-0_0
  6
CONTINUOUS
 62
    7
 10
786.45289207944381
 20
250.25950316825111
 11
791.45289207944381
 21
250.25950316825111
  0
LINE
  8
_0-0_0
  6
CONTINUOUS
 62
    7
 10
786.45289207944381
 20
250.25950316825111
 11
786.45289207944381
 21
245.25950316825111
  0
LINE
  8
_0-0_0
  6
CONTINUOUS
 62
    7
 10
786.45289207944381
 20
250.25950316825111
 11
781.45289207944381
 21
250.25950316825111
  0
LINE
  8
_0-0_0
  6
CONTINUOUS
 62
    7
 10
1017.4528920794438
 20
250.25950316825111
 11
1017.4528920794438
 21
255.25950316825111
  0
LINE
  8
_0-0_0
  6
CONTINUOUS
 62
    7
 10
1017.4528920794438
 20
250.25950316825111
 11
1022.4528920794438
 21
250.25950316825111
  0
LINE
  8
_0-0_0
  6
CONTINUOUS
 62
    7
 10
1017.4528920794438
 20
250.25950316825111
 11
1017.4528920794438
 21
245.25950316825111
  0
LINE
  8
_0-0_0
  6
CONTINUOUS
 62
    7
 10
1017.4528920794438
 20
250.25950316825111
 11
1012.4528920794438
 21
250.25950316825111
  0
LINE
  8
_0-0_0
  6
CONTINUOUS
 62
    7
 10
1017.4528920794438
 20
202.25950316825111
 11
1022.4528920794438
 21
202.25950316825111
  0
LINE
  8
_0-0_0
  6
CONTINUOUS
 62
    7
 10
1017.4528920794438
 20
202.25950316825111
 11
1017.4528920794438
 21
197.25950316825111
  0
LINE
  8
_0-0_0
  6
CONTINUOUS
 62
    7
 10
1017.4528920794438
 20
202.25950316825111
 11
1017.4528920794438
 21
207.25950316825111
  0
LINE
  8
_0-0_0
  6
CONTINUOUS
 62
    7
 10
1017.4528920794438
 20
202.25950316825111
 11
1012.4528920794438
 21
202.25950316825111
  0
LINE
  8
_0-0_0
  6
CONTINUOUS
 62
    7
 10
786.45289207944381
 20
202.25950316825111
 11
781.45289207944381
 21
202.25950316825111
  0
LINE
  8
_0-0_0
  6
CONTINUOUS
 62
    7
 10
786.45289207944381
 20
202.25950316825111
 11
786.45289207944381
 21
207.25950316825111
  0
LINE
  8
_0-0_0
  6
CONTINUOUS
 62
    7
 10
786.45289207944381
 20
202.25950316825111
 11
791.45289207944381
 21
202.25950316825111
  0
LINE
  8
_0-0_0
  6
CONTINUOUS
 62
    7
 10
786.45289207944381
 20
202.25950316825111
 11
786.45289207944381
 21
197.25950316825111
  0
LINE
  8
_0-0_0
  6
CONTINUOUS
 62
    7
 10
786.45289207944381
 20
226.25950316825111
 11
786.45289207944381
 21
231.25950316825111
  0
LINE
  8
_0-0_0
  6
CONTINUOUS
 62
    7
 10
786.45289207944381
 20
226.25950316825111
 11
781.45289207944381
 21
226.25950316825111
  0
LINE
  8
_0-0_0
  6
CONTINUOUS
 62
    7
 10
786.45289207944381
 20
226.25950316825111
 11
786.45289207944381
 21
221.25950316825111
  0
LINE
  8
_0-0_0
  6
CONTINUOUS
 62
    7
 10
786.45289207944381
 20
226.25950316825111
 11
791.45289207944381
 21
226.25950316825111
  0
LINE
  8
_0-0_0
  6
CONTINUOUS
 62
    7
 10
786.45289207944381
 20
252.75950316825111
 11
781.95289207944381
 21
252.75950316825111
  0
LINE
  8
_0-0_0
  6
CONTINUOUS
 62
    7
 10
786.45289207944381
 20
247.75950316825111
 11
781.95289207944381
 21
247.75950316825111
  0
LINE
  8
_0-0_0
  6
CONTINUOUS
 62
    7
 10
786.45289207944381
 20
228.75950316825111
 11
781.95289207944381
 21
228.75950316825111
  0
LINE
  8
_0-0_0
  6
CONTINUOUS
 62
    7
 10
786.45289207944381
 20
204.75950316825111
 11
781.95289207944381
 21
204.75950316825111
  0
LINE
  8
_0-0_0
  6
CONTINUOUS
 62
    7
 10
786.45289207944381
 20
199.75950316825111
 11
781.95289207944381
 21
199.75950316825111
  0
ARC
  8
_0-0_0
  6
CONTINUOUS
 62
    7
 10
786.45289207944381
 20
250.25950316825111
 40
2.5
 50
270
 51
90
  0
ARC
  8
_0-0_0
  6
CONTINUOUS
 62
    7
 10
786.45289207944381
 20
226.25950316825111
 40
2.5
 50
270
 51
90
  0
ARC
  8
_0-0_0
  6
CONTINUOUS
 62
    7
 10
786.45289207944381
 20
202.25950316825111
 40
2.5
 50
270
 51
90
  0
LINE
  8
_0-0_0
  6
CONTINUOUS
 62
    7
 10
786.45289207944381
 20
223.75950316825111
 11
781.95289207944381
 21
223.75950316825111
  0
LINE
  8
_0-0_0
  6
CONTINUOUS
 62
    7
 10
637.03392369342055
 20
192.4595031682511
 11
637.03392369342055
 21
260.05950316825107
  0
LINE
  8
_0-0_0
  6
CONTINUOUS
 62
    7
 10
612.03392369342055
 20
192.4595031682511
 11
612.03392369342055
 21
260.05950316825107
  0
LINE
  8
_0-0_0
  6
CONTINUOUS
 62
    7
 10
589.63392369342046
 20
259.10950316825108
 11
589.63392369342046
 21
193.40950316825109
  0
LINE
  8
_0-0_0
  6
CONTINUOUS
 62
    7
 10
637.03392369342055
 20
260.05950316825107
 11
612.03392369342055
 21
260.05950316825107
  0
LINE
  8
_0-0_0
  6
CONTINUOUS
 62
    7
 10
612.03392369342055
 20
192.4595031682511
 11
637.03392369342055
 21
192.4595031682511
  0
LINE
  8
_0-0_0
  6
CONTINUOUS
 62
    7
 10
589.63392369342046
 20
259.10950316825108
 11
589.63392369342046
 21
193.40950316825109
  0
LINE
  8
_0-0_0
  6
CONTINUOUS
 62
    7
 10
602.03392369342055
 20
193.40950316825109
 11
602.03392369342055
 21
259.10950316825108
  0
LINE
  8
_0-0_0
  6
CONTINUOUS
 62
    7
 10
1019.9528920794438
 20
242.05950316825107
 11
1011.9528920794438
 21
242.05950316825107
  0
LINE
  8
_0-0_0
  6
CONTINUOUS
 62
    7
 10
1021.9528920794438
 20
244.05950316825107
 11
1021.9528920794438
 21
260.05950316825107
  0
ARC
  8
_0-0_0
  6
CONTINUOUS
 62
    7
 10
1019.9528920794438
 20
244.05950316825107
 40
2
 50
270
 51
0
  0
LINE
  8
_0-0_0
  6
CONTINUOUS
 62
    7
 10
1019.9528920794438
 20
210.4595031682511
 11
1011.9528920794438
 21
210.4595031682511
  0
LINE
  8
_0-0_0
  6
CONTINUOUS
 62
    7
 10
1021.9528920794438
 20
208.4595031682511
 11
1021.9528920794438
 21
192.4595031682511
  0
ARC
  8
_0-0_0
  6
CONTINUOUS
 62
    7
 10
1019.9528920794438
 20
208.4595031682511
 40
2
 50
0
 51
90
  0
LINE
  8
_0-0_0
  6
CONTINUOUS
 62
    7
 10
1011.9528920794438
 20
212.05950316825113
 11
1021.9528920794438
 21
212.05950316825113
  0
LINE
  8
_0-0_0
  6
CONTINUOUS
 62
    7
 10
1011.9528920794438
 20
240.4595031682511
 11
1021.9528920794438
 21
240.4595031682511
  0
LINE
  8
_0-0_0
  6
CONTINUOUS
 62
    7
 10
637.03392369342055
 20
259.10950316825108
 11
589.63392369342046
 21
259.10950316825108
  0
LINE
  8
_0-0_0
  6
CONTINUOUS
 62
    7
 10
589.63392369342046
 20
193.40950316825109
 11
637.03392369342055
 21
193.40950316825109
  0
LINE
  8
_0-0_0
  6
CONTINUOUS
 62
    7
 10
808.55289207944384
 20
192.4595031682511
 11
808.55289207944384
 21
260.05950316825107
  0
LINE
  8
_0-0_0
  6
CONTINUOUS
 62
    7
 10
627.03392369342055
 20
193.40950316825109
 11
627.03392369342055
 21
259.10950316825108
  0
LINE
  8
_0-0_0
  6
CONTINUOUS
 62
    7
 10
415.00000727010524
 20
11.999999463142871
 11
304.81960714341614
 21
11.999999463142871
  0
LINE
  8
_0-0_0
  6
CONTINUOUS
 62
    7
 10
415.00000727010524
 20
291.99999765889419
 11
4.9999988932363237
 21
291.99999765889419
  0
LINE
  8
_0-0_0
  6
CONTINUOUS
 62
    7
 10
4.9999988932363237
 20
291.99999765889419
 11
4.9999988932363237
 21
4.9999991796180723
  0
LINE
  8
_0-0_0
  6
CONTINUOUS
 62
    7
 10
4.9999988932363237
 20
4.9999991796180723
 11
415.00000727010524
 21
4.9999991796180723
  0
LINE
  8
_0-0_0
  6
CONTINUOUS
 62
    7
 10
415.00000727010524
 20
4.9999991796180723
 11
415.00000727010524
 21
291.99999765889419
  0
TEXT
  8
_0-0_0
 62
    7
 10
309.86039099978228
 20
20.793448607248536
 40
3
 41
1
 50
0
  1
品名
  0
TEXT
  8
_0-0_0
 62
    7
 10
326.40880754987739
 20
20.793448607248536
 40
3
 41
1
 50
0
  1
導光板ベースライト照明 LGPシリーズ
  0
TEXT
  8
_0-0_0
 62
    7
 10
309.86039099978234
 20
13.692756167524863
 40
3
 41
1
 50
0
  1
品番
  0
TEXT
  8
_0-0_0
 62
    7
 10
320.13102665619056
 20
6.7540556204353948
 40
3
 41
1
 50
0
  1
山田医療照明株式会社
  0
LINE
  8
_0-0_0
  6
CONTINUOUS
 62
    7
 10
190.60237477432835
 20
263.99999497829612
 11
415.00000727010524
 21
263.99999497829612
  0
LINE
  8
_0-0_0
  6
CONTINUOUS
 62
    7
 10
190.60237477432835
 20
270.99999642169507
 11
415.00000727010524
 21
270.99999642169507
  0
LINE
  8
_0-0_0
  6
CONTINUOUS
 62
    7
 10
190.60237477432835
 20
277.99999477209627
 11
415.00000727010524
 21
277.99999477209627
  0
LINE
  8
_0-0_0
  6
CONTINUOUS
 62
    7
 10
190.60237477432835
 20
284.99999312249747
 11
415.00000727010524
 21
284.99999312249747
  0
LINE
  8
_0-0_0
  6
CONTINUOUS
 62
    7
 10
190.60237477432835
 20
291.99999765889419
 11
415.00000727010524
 21
291.99999765889419
  0
LINE
  8
_0-0_0
  6
CONTINUOUS
 62
    7
 10
358.83089534812484
 20
291.99999765889419
 11
358.83089534812484
 21
256.99999662789492
  0
LINE
  8
_0-0_0
  6
CONTINUOUS
 62
    7
 10
335.14318419947614
 20
291.99999765889419
 11
335.14318419947614
 21
256.99999662789492
  0
TEXT
  8
_0-0_0
 62
    7
 10
338.28586542440212
 20
286.47354056825861
 40
3
 41
1
 50
0
  1
入力電圧
  0
TEXT
  8
_0-0_0
 62
    7
 10
360.90453591373932
 20
286.47354056825861
 40
3
 41
1
 50
0
  1
AC100/200V　50/60Hz
  0
TEXT
  8
_0-0_0
 62
    7
 10
328.20881018923552
 20
279.5646124445783
 40
3
 41
1
 50
0
  1
1
  0
TEXT
  8
_0-0_0
 62
    7
 10
338.28586542440217
 20
279.5646124445783
 40
3
 41
1
 50
0
  1
消費電力
  0
TEXT
  8
_0-0_0
 62
    7
 10
360.47202595016245
 20
279.5646124445783
 40
3
 41
1
 50
0
  1
64W
  0
TEXT
  8
_0-0_0
 62
    7
 10
196.88992294261374
 20
272.81348597478575
 40
3
 41
1
 50
0
  1
2
  0
TEXT
  8
_0-0_0
 62
    7
 10
207.98704307299806
 20
272.81348597478575
 40
3
 41
1
 50
0
  1
取付け用ベース板金
  0
TEXT
  8
_0-0_0
 62
    7
 10
258.80186075933676
 20
272.81348597478575
 40
3
 41
1
 50
0
  1
鋼板SECC、t=1
  0
TEXT
  8
_0-0_0
 62
    7
 10
328.20881018923552
 20
272.81348597478575
 40
3
 41
1
 50
0
  1
1
  0
TEXT
  8
_0-0_0
 62
    7
 10
343.22474943781015
 20
272.81348597478575
 40
3
 41
1
 50
0
  1
力率
  0
TEXT
  8
_0-0_0
 62
    7
 10
360.90453673853864
 20
272.81348597478575
 40
3
 41
1
 50
0
  1
高力率
  0
TEXT
  8
_0-0_0
 62
    7
 10
328.20881018923541
 20
265.69438555875695
 40
3
 41
1
 50
0
  1
1
  0
TEXT
  8
_0-0_0
 62
    7
 10
340.7553074311063
 20
265.69438555875695
 40
3
 41
1
 50
0
  1
色温度
  0
TEXT
  8
_0-0_0
 62
    7
 10
360.90453096494275
 20
265.69438555875695
 40
3
 41
1
 50
0
  1
3500K、4250K、5000K
  0
TEXT
  8
_0-0_0
 62
    7
 10
343.22474943781015
 20
258.73837891582252
 40
3
 41
1
 50
0
  1
重量
  0
TEXT
  8
_0-0_0
 62
    7
 10
360.67586192725281
 20
258.73837891582252
 40
3
 41
1
 50
0
  1
2.5kg
  0
LINE
  8
_0-0_0
  6
CONTINUOUS
 62
    7
 10
324.25311016548125
 20
256.99999662789492
 11
324.25311016548125
 21
291.99999765889419
  0
TEXT
  8
_0-0_0
 62
    7
 10
194.78746512285551
 20
286.82876712328766
 40
3
 41
1
 50
0
  1
No.
  0
TEXT
  8
_0-0_0
 62
    7
 10
223.94226471309526
 20
286.82876712328766
 40
3
 41
1
 50
0
  1
部品名
  0
TEXT
  8
_0-0_0
 62
    7
 10
284.49780917968087
 20
286.82876712328766
 40
3
 41
1
 50
0
  1
材質
  0
TEXT
  8
_0-0_0
 62
    7
 10
326.52867474053437
 20
286.97881692336563
 40
3
 41
1
 50
0
  1
数量
  0
TEXT
  8
_0-0_0
 62
    7
 10
196.88992294261374
 20
265.90251524834991
 40
3
 41
1
 50
0
  1
3
  0
TEXT
  8
_0-0_0
 62
    7
 10
207.98704059859983
 20
265.90251524834991
 40
3
 41
1
 50
0
  1
電源（別置型）
  0
TEXT
  8
_0-0_0
 62
    7
 10
258.80186075933676
 20
265.90251524834991
 40
3
 41
1
 50
0
  1
パナソニック製LG91819300-IL1
  0
TEXT
  8
_0-0_0
 62
    7
 10
196.88992294261374
 20
279.71799391095715
 40
3
 41
1
 50
0
  1
1
  0
TEXT
  8
_0-0_0
 62
    7
 10
207.98704554739624
 20
279.71799391095715
 40
3
 41
1
 50
0
  1
導光板ベースライト本体
  0
TEXT
  8
_0-0_0
 62
    7
 10
258.80187395612722
 20
279.71799391095715
 40
3
 41
1
 50
0
  1
LED導光板、アルミフレーム
  0
LINE
  8
_0-0_0
  6
CONTINUOUS
 62
    7
 10
415.00000727010524
 20
256.99999662789492
 11
324.25311016548125
 21
256.99999662789492
  0
LINE
  8
_0-0_0
  6
CONTINUOUS
 62
    7
 10
257.03034174276166
 20
291.99999765889419
 11
257.03034174276166
 21
263.99999497829612
  0
LINE
  8
_0-0_0
  6
CONTINUOUS
 62
    7
 10
206.38724151973585
 20
291.99999765889419
 11
206.38724151973585
 21
263.99999497829612
  0
LINE
  8
_0-0_0
  6
CONTINUOUS
 62
    7
 10
190.60237477432835
 20
263.99999497829612
 11
190.60237477432835
 21
291.99999765889419
  0
TEXT
  8
_0-0_0
 62
    7
 10
13.679139680103219
 20
77.920985907656529
 40
3
 41
1
 50
0
  1
取付け方法
  0
TEXT
  8
_0-0_0
 62
    7
 10
10.93846597054312
 20
68.14397661381679
 40
3
 41
1
 50
0
  1
1) 取付け用ベース板金を吊りボルト(M10ナット3種)に固定
  0
TEXT
  8
_0-0_0
 62
    7
 10
10.938456382250024
 20
63.205077754019499
 40
3
 41
1
 50
0
  1
2) 導光板ベースライト本体の吊り下げチェーンをベース板金の所定部に引っ掛ける
  0
TEXT
  8
_0-0_0
 62
    7
 10
10.938458392698578
 20
58.266191266213355
 40
3
 41
1
 50
0
  1
3) 導光板ベースライト本体のコーナー4ヶ所をベース板金にビス留め
  0
TEXT
  8
_0-0_0
 62
    7
 10
172.30754115286504
 20
58.01093853117851
 40
3
 41
1
 50
0
  1
(2ヶ所)
  0
TEXT
  8
_0-0_0
 62
    7
 10
10.938459887647497
 20
23.693976572576844
 40
3
 41
1
 50
0
  1
<調光率>　PWM調光、5-100%
  0
TEXT
  8
_0-0_0
 62
    7
 10
10.938486332778552
 20
18.7550900847707
 40
3
 41
1
 50
0
  1
<推奨調光コントローラー>　パナソニック製 NQ21535Z、NQ21532Z、NQ21595Z、NQ21592Z
  0
TEXT
  8
_0-0_0
 62
    7
 10
10.93846437249428
 20
13.816197410968925
 40
3
 41
1
 50
0
  1
                                      NQ21585Z、NQ21582Z
  0
LINE
  8
_0-0_0
  6
CENTER2
 62
    7
 10
304.32428210646515
 20
146.58732096151368
 11
304.32428210646515
 21
125.05949965265589
  0
LINE
  8
_0-0_0
  6
CENTER2
 62
    7
 10
289.32428210646526
 20
137.60617092720199
 11
289.32428210646526
 21
135.71534715054449
  0
LINE
  8
_0-0_0
  6
CENTER2
 62
    7
 10
319.32428210646526
 20
137.60617092720199
 11
319.32428210646526
 21
135.71534715054449
  0
LINE
  8
_0-0_0
  6
CONTINUOUS
 62
    7
 10
278.77428936469994
 20
136.22069350031219
 11
278.67429893237306
 21
136.22069350031219
  0
LINE
  8
_0-0_0
  6
CONTINUOUS
 62
    7
 10
278.67429893237306
 20
136.37069152079368
 11
278.77428936469994
 21
136.37069152079368
  0
LINE
  8
_0-0_0
  6
CONTINUOUS
 62
    7
 10
278.77428936469994
 20
136.37069152079368
 11
278.77428936469994
 21
136.22069350031219
  0
LINE
  8
_0-0_0
  6
CONTINUOUS
 62
    7
 10
278.67429893237306
 20
136.22069350031219
 11
278.67429893237306
 21
136.37069152079368
  0
LINE
  8
_0-0_0
  6
CONTINUOUS
 62
    7
 10
278.77428936469994
 20
136.97069597471048
 11
278.67429893237306
 21
136.97069597471048
  0
LINE
  8
_0-0_0
  6
CONTINUOUS
 62
    7
 10
278.77428936469994
 20
136.97069597471048
 11
278.77428936469994
 21
136.37069152079368
  0
LINE
  8
_0-0_0
  6
CONTINUOUS
 62
    7
 10
278.67429893237306
 20
136.37069152079368
 11
278.67429893237306
 21
136.97069597471048
  0
LINE
  8
_0-0_0
  6
CONTINUOUS
 62
    7
 10
278.67429893237306
 20
137.12069399519189
 11
278.77428936469994
 21
137.12069399519189
  0
LINE
  8
_0-0_0
  6
CONTINUOUS
 62
    7
 10
278.77428936469994
 20
137.12069399519189
 11
278.77428936469994
 21
136.97069597471048
  0
LINE
  8
_0-0_0
  6
CONTINUOUS
 62
    7
 10
278.67429893237306
 20
136.97069597471048
 11
278.67429893237306
 21
137.12069399519189
  0
LINE
  8
_0-0_0
  6
CONTINUOUS
 62
    7
 10
329.97429002453941
 20
136.22069350031219
 11
329.87429959221254
 21
136.22069350031219
  0
LINE
  8
_0-0_0
  6
CONTINUOUS
 62
    7
 10
329.87429959221254
 20
136.22069350031219
 11
329.87429959221254
 21
136.37069152079368
  0
LINE
  8
_0-0_0
  6
CONTINUOUS
 62
    7
 10
329.87429959221254
 20
136.37069152079368
 11
329.97429002453941
 21
136.37069152079368
  0
LINE
  8
_0-0_0
  6
CONTINUOUS
 62
    7
 10
329.97429002453941
 20
136.37069152079368
 11
329.97429002453941
 21
136.22069350031219
  0
LINE
  8
_0-0_0
  6
CONTINUOUS
 62
    7
 10
329.97429002453941
 20
136.97069597471048
 11
329.87429959221254
 21
136.97069597471048
  0
LINE
  8
_0-0_0
  6
CONTINUOUS
 62
    7
 10
329.97429002453941
 20
136.97069597471048
 11
329.97429002453941
 21
136.37069152079368
  0
LINE
  8
_0-0_0
  6
CONTINUOUS
 62
    7
 10
329.87429959221254
 20
136.37069152079368
 11
329.87429959221254
 21
136.97069597471048
  0
LINE
  8
_0-0_0
  6
CONTINUOUS
 62
    7
 10
329.87429959221254
 20
137.12069399519189
 11
329.97429002453941
 21
137.12069399519189
  0
LINE
  8
_0-0_0
  6
CONTINUOUS
 62
    7
 10
329.97429002453941
 20
137.12069399519189
 11
329.97429002453941
 21
136.97069597471048
  0
LINE
  8
_0-0_0
  6
CONTINUOUS
 62
    7
 10
329.87429959221254
 20
136.97069597471048
 11
329.87429959221254
 21
137.12069399519189
  0
LINE
  8
_0-0_0
  6
CONTINUOUS
 62
    7
 10
277.87430124181145
 20
128.52068789167629
 11
277.87430124181145
 21
128.44069059701829
  0
LINE
  8
_0-0_0
  6
CONTINUOUS
 62
    7
 10
277.87430124181145
 20
128.44069059701829
 11
277.67429563317552
 21
128.44069059701829
  0
LINE
  8
_0-0_0
  6
CONTINUOUS
 62
    7
 10
277.67429563317552
 20
128.44069059701829
 11
277.67429563317552
 21
128.52068789167629
  0
LINE
  8
_0-0_0
  6
CONTINUOUS
 62
    7
 10
277.67429563317552
 20
128.52068789167629
 11
277.87430124181145
 21
128.52068789167629
  0
LINE
  8
_0-0_0
  6
CONTINUOUS
 62
    7
 10
330.77428771510114
 20
128.52068789167629
 11
277.87430124181145
 21
128.52068789167629
  0
LINE
  8
_0-0_0
  6
CONTINUOUS
 62
    7
 10
330.77428771510114
 20
128.44069059701829
 11
330.77428771510114
 21
128.52068789167629
  0
LINE
  8
_0-0_0
  6
CONTINUOUS
 62
    7
 10
277.87430124181145
 20
128.44069059701829
 11
330.77428771510114
 21
128.44069059701829
  0
LINE
  8
_0-0_0
  6
CONTINUOUS
 62
    7
 10
330.97429332373713
 20
128.52068789167629
 11
330.97429332373713
 21
128.44069059701829
  0
LINE
  8
_0-0_0
  6
CONTINUOUS
 62
    7
 10
330.77428771510114
 20
128.52068789167629
 11
330.97429332373713
 21
128.52068789167629
  0
LINE
  8
_0-0_0
  6
CONTINUOUS
 62
    7
 10
330.97429332373713
 20
128.44069059701829
 11
330.77428771510114
 21
128.44069059701829
  0
LINE
  8
_0-0_0
  6
CONTINUOUS
 62
    7
 10
277.87430124181145
 20
144.90069689848579
 11
277.87430124181145
 21
144.82069960382788
  0
LINE
  8
_0-0_0
  6
CONTINUOUS
 62
    7
 10
277.87430124181145
 20
144.82069960382788
 11
277.67429563317552
 21
144.82069960382788
  0
LINE
  8
_0-0_0
  6
CONTINUOUS
 62
    7
 10
277.67429563317552
 20
144.82069960382788
 11
277.67429563317552
 21
144.90069689848579
  0
LINE
  8
_0-0_0
  6
CONTINUOUS
 62
    7
 10
277.67429563317552
 20
144.90069689848579
 11
277.87430124181145
 21
144.90069689848579
  0
LINE
  8
_0-0_0
  6
CONTINUOUS
 62
    7
 10
330.77428771510114
 20
144.90069689848579
 11
277.87430124181145
 21
144.90069689848579
  0
LINE
  8
_0-0_0
  6
CONTINUOUS
 62
    7
 10
330.77428771510114
 20
144.82069960382788
 11
330.77428771510114
 21
144.90069689848579
  0
LINE
  8
_0-0_0
  6
CONTINUOUS
 62
    7
 10
277.87430124181145
 20
144.82069960382788
 11
330.77428771510114
 21
144.82069960382788
  0
LINE
  8
_0-0_0
  6
CONTINUOUS
 62
    7
 10
330.97429332373713
 20
144.90069689848579
 11
330.97429332373713
 21
144.82069960382788
  0
LINE
  8
_0-0_0
  6
CONTINUOUS
 62
    7
 10
330.77428771510114
 20
144.90069689848579
 11
330.97429332373713
 21
144.90069689848579
  0
LINE
  8
_0-0_0
  6
CONTINUOUS
 62
    7
 10
330.97429332373713
 20
144.82069960382788
 11
330.77428771510114
 21
144.82069960382788
  0
LINE
  8
_0-0_0
  6
CONTINUOUS
 62
    7
 10
273.67428243638494
 20
128.82069630463019
 11
273.97427847734764
 21
128.52068789167629
  0
LINE
  8
_0-0_0
  6
CONTINUOUS
 62
    7
 10
273.67428243638494
 20
128.82069630463019
 11
273.67428243638494
 21
144.52069119087389
  0
LINE
  8
_0-0_0
  6
CONTINUOUS
 62
    7
 10
273.97427847734764
 20
144.82069960382788
 11
273.67428243638494
 21
144.52069119087389
  0
LINE
  8
_0-0_0
  6
CONTINUOUS
 62
    7
 10
273.97427847734764
 20
144.82069960382788
 11
276.57430190165093
 21
144.82069960382788
  0
LINE
  8
_0-0_0
  6
CONTINUOUS
 62
    7
 10
276.57430190165093
 20
128.52068789167629
 11
276.57430190165093
 21
144.82069960382788
  0
LINE
  8
_0-0_0
  6
CONTINUOUS
 62
    7
 10
273.97427847734764
 20
128.52068789167629
 11
276.57430190165093
 21
128.52068789167629
  0
LINE
  8
_0-0_0
  6
CONTINUOUS
 62
    7
 10
334.97428177654535
 20
144.52069119087389
 11
334.67428573558254
 21
144.82069960382788
  0
LINE
  8
_0-0_0
  6
CONTINUOUS
 62
    7
 10
334.97428177654535
 20
128.82069630463019
 11
334.97428177654535
 21
144.52069119087389
  0
LINE
  8
_0-0_0
  6
CONTINUOUS
 62
    7
 10
334.67428573558254
 20
128.52068789167629
 11
334.97428177654535
 21
128.82069630463019
  0
LINE
  8
_0-0_0
  6
CONTINUOUS
 62
    7
 10
332.07428705526166
 20
128.52068789167629
 11
334.67428573558254
 21
128.52068789167629
  0
LINE
  8
_0-0_0
  6
CONTINUOUS
 62
    7
 10
332.07428705526166
 20
144.82069960382788
 11
332.07428705526166
 21
128.52068789167629
  0
LINE
  8
_0-0_0
  6
CONTINUOUS
 62
    7
 10
332.07428705526166
 20
144.82069960382788
 11
334.67428573558254
 21
144.82069960382788
  0
LINE
  8
_0-0_0
  6
CONTINUOUS
 62
    7
 10
276.57430190165093
 20
144.82069960382788
 11
276.67429233397786
 21
144.82069960382788
  0
LINE
  8
_0-0_0
  6
CONTINUOUS
 62
    7
 10
276.67429233397786
 20
144.82069960382788
 11
276.67429233397786
 21
128.52068789167629
  0
LINE
  8
_0-0_0
  6
CONTINUOUS
 62
    7
 10
276.67429233397786
 20
128.52068789167629
 11
276.57430190165093
 21
128.52068789167629
  0
LINE
  8
_0-0_0
  6
CONTINUOUS
 62
    7
 10
331.97429662293473
 20
128.52068789167629
 11
331.97429662293473
 21
144.82069960382788
  0
LINE
  8
_0-0_0
  6
CONTINUOUS
 62
    7
 10
331.97429662293473
 20
144.82069960382788
 11
332.07428705526166
 21
144.82069960382788
  0
LINE
  8
_0-0_0
  6
CONTINUOUS
 62
    7
 10
332.07428705526166
 20
128.52068789167629
 11
331.97429662293473
 21
128.52068789167629
  0
LINE
  8
_0-0_0
  6
CONTINUOUS
 62
    7
 10
276.72429992213233
 20
144.82069960382788
 11
276.72429992213233
 21
128.52068789167629
  0
LINE
  8
_0-0_0
  6
CONTINUOUS
 62
    7
 10
276.67429233397786
 20
144.82069960382788
 11
276.72429992213233
 21
144.82069960382788
  0
LINE
  8
_0-0_0
  6
CONTINUOUS
 62
    7
 10
276.72429992213233
 20
128.52068789167629
 11
276.67429233397786
 21
128.52068789167629
  0
LINE
  8
_0-0_0
  6
CONTINUOUS
 62
    7
 10
277.67429563317552
 20
128.57069547983079
 11
330.97429332373713
 21
128.57069547983079
  0
LINE
  8
_0-0_0
  6
CONTINUOUS
 62
    7
 10
330.97429332373713
 20
128.57069547983079
 11
330.97429332373713
 21
128.52068789167629
  0
LINE
  8
_0-0_0
  6
CONTINUOUS
 62
    7
 10
277.67429563317552
 20
128.52068789167629
 11
277.67429563317552
 21
128.57069547983079
  0
LINE
  8
_0-0_0
  6
CONTINUOUS
 62
    7
 10
331.92428903478026
 20
128.52068789167629
 11
331.92428903478026
 21
144.82069960382788
  0
LINE
  8
_0-0_0
  6
CONTINUOUS
 62
    7
 10
331.92428903478026
 20
144.82069960382788
 11
331.97429662293473
 21
144.82069960382788
  0
LINE
  8
_0-0_0
  6
CONTINUOUS
 62
    7
 10
331.97429662293473
 20
128.52068789167629
 11
331.92428903478026
 21
128.52068789167629
  0
LINE
  8
_0-0_0
  6
CONTINUOUS
 62
    7
 10
278.62429134421853
 20
136.22069350031219
 11
278.62429134421853
 21
137.12069399519189
  0
LINE
  8
_0-0_0
  6
CONTINUOUS
 62
    7
 10
278.62429134421853
 20
137.12069399519189
 11
278.67429893237306
 21
137.12069399519189
  0
LINE
  8
_0-0_0
  6
CONTINUOUS
 62
    7
 10
278.67429893237306
 20
136.22069350031219
 11
278.62429134421853
 21
136.22069350031219
  0
LINE
  8
_0-0_0
  6
CONTINUOUS
 62
    7
 10
330.02429761269406
 20
137.12069399519189
 11
330.02429761269406
 21
136.22069350031219
  0
LINE
  8
_0-0_0
  6
CONTINUOUS
 62
    7
 10
329.97429002453941
 20
137.12069399519189
 11
330.02429761269406
 21
137.12069399519189
  0
LINE
  8
_0-0_0
  6
CONTINUOUS
 62
    7
 10
330.02429761269406
 20
136.22069350031219
 11
329.97429002453941
 21
136.22069350031219
  0
LINE
  8
_0-0_0
  6
CONTINUOUS
 62
    7
 10
330.97429332373713
 20
144.77069201567329
 11
277.67429563317552
 21
144.77069201567329
  0
LINE
  8
_0-0_0
  6
CONTINUOUS
 62
    7
 10
330.97429332373713
 20
144.82069960382788
 11
330.97429332373713
 21
144.77069201567329
  0
LINE
  8
_0-0_0
  6
CONTINUOUS
 62
    7
 10
277.67429563317552
 20
144.77069201567329
 11
277.67429563317552
 21
144.82069960382788
  0
LINE
  8
_0-0_0
  6
CONTINUOUS
 62
    7
 10
326.71179596309526
 20
136.89569696446978
 11
325.47650213655385
 21
136.89569696446978
  0
LINE
  8
_0-0_0
  6
CONTINUOUS
 62
    7
 10
325.47650213655385
 20
136.44569053103439
 11
326.71179596309526
 21
136.44569053103439
  0
LINE
  8
_0-0_0
  6
CONTINUOUS
 62
    7
 10
329.97429002453941
 20
137.52069284047269
 11
328.57430025205213
 21
137.52069284047269
  0
LINE
  8
_0-0_0
  6
CONTINUOUS
 62
    7
 10
328.57430025205213
 20
137.52069284047269
 11
328.57430025205213
 21
135.82069465503139
  0
LINE
  8
_0-0_0
  6
CONTINUOUS
 62
    7
 10
328.57430025205213
 20
135.82069465503139
 11
329.97429002453941
 21
135.82069465503139
  0
LINE
  8
_0-0_0
  6
CONTINUOUS
 62
    7
 10
329.97429002453941
 20
135.82069465503139
 11
329.97429002453941
 21
136.22069350031219
  0
LINE
  8
_0-0_0
  6
CONTINUOUS
 62
    7
 10
329.97429002453941
 20
137.12069399519189
 11
329.97429002453941
 21
137.52069284047269
  0
LINE
  8
_0-0_0
  6
CONTINUOUS
 62
    7
 10
278.67429893237306
 20
135.82069465503139
 11
280.07428870486046
 21
135.82069465503139
  0
LINE
  8
_0-0_0
  6
CONTINUOUS
 62
    7
 10
280.07428870486046
 20
135.82069465503139
 11
280.07428870486046
 21
137.52069284047269
  0
LINE
  8
_0-0_0
  6
CONTINUOUS
 62
    7
 10
280.07428870486046
 20
137.52069284047269
 11
278.67429893237306
 21
137.52069284047269
  0
LINE
  8
_0-0_0
  6
CONTINUOUS
 62
    7
 10
278.67429893237306
 20
137.52069284047269
 11
278.67429893237306
 21
137.12069399519189
  0
LINE
  8
_0-0_0
  6
CONTINUOUS
 62
    7
 10
278.67429893237306
 20
136.22069350031219
 11
278.67429893237306
 21
135.82069465503139
  0
LINE
  8
_0-0_0
  6
CONTINUOUS
 62
    7
 10
319.72429332373713
 20
137.27069201567329
 11
318.92429563317552
 21
137.27069201567329
  0
LINE
  8
_0-0_0
  6
CONTINUOUS
 62
    7
 10
318.92429563317552
 20
136.07069547983079
 11
319.72429332373713
 21
136.07069547983079
  0
LINE
  8
_0-0_0
  6
CONTINUOUS
 62
    7
 10
288.92429563317552
 20
136.07069547983079
 11
289.72429332373702
 21
136.07069547983079
  0
LINE
  8
_0-0_0
  6
CONTINUOUS
 62
    7
 10
289.72429332373702
 20
137.27069201567329
 11
288.92429563317552
 21
137.27069201567329
  0
LINE
  8
_0-0_0
  6
CONTINUOUS
 62
    7
 10
296.82428210646526
 20
133.67069003615478
 11
311.82428210646526
 21
133.67069003615478
  0
LINE
  8
_0-0_0
  6
CONTINUOUS
 62
    7
 10
311.82428210646526
 20
133.67069003615478
 11
311.82428210646526
 21
139.67069745934938
  0
LINE
  8
_0-0_0
  6
CONTINUOUS
 62
    7
 10
311.82428210646526
 20
139.67069745934938
 11
296.82428210646526
 21
139.67069745934938
  0
LINE
  8
_0-0_0
  6
CONTINUOUS
 62
    7
 10
296.82428210646526
 20
139.67069745934938
 11
296.82428210646526
 21
133.67069003615478
  0
LINE
  8
_0-0_0
  6
CONTINUOUS
 62
    7
 10
330.97429332373713
 20
144.82069960382788
 11
331.92428903478026
 21
144.82069960382788
  0
LINE
  8
_0-0_0
  6
CONTINUOUS
 62
    7
 10
276.72429992213233
 20
144.82069960382788
 11
277.67429563317552
 21
144.82069960382788
  0
LINE
  8
_0-0_0
  6
CONTINUOUS
 62
    7
 10
330.97429332373713
 20
128.52068789167629
 11
331.92428903478026
 21
128.52068789167629
  0
LINE
  8
_0-0_0
  6
CONTINUOUS
 62
    7
 10
276.72429992213233
 20
128.52068789167629
 11
277.67429563317552
 21
128.52068789167629
  0
LINE
  8
_0-0_0
  6
CONTINUOUS
 62
    7
 10
316.32429695285447
 20
109.85967962388699
 11
319.32428210646526
 21
109.05583424408329
  0
LINE
  8
_0-0_0
  6
CONTINUOUS
 62
    7
 10
319.32428210646526
 20
109.05583424408329
 11
316.32429695285447
 21
108.25198886427967
  0
LINE
  8
_0-0_0
  6
CONTINUOUS
 62
    7
 10
319.32428210646526
 20
109.05583424408329
 11
316.32429695285447
 21
109.05583424408329
  0
LINE
  8
_0-0_0
  6
CONTINUOUS
 62
    7
 10
292.32429200405807
 20
108.25198886427967
 11
289.32428210646526
 21
109.05583424408329
  0
LINE
  8
_0-0_0
  6
CONTINUOUS
 62
    7
 10
289.32428210646526
 20
109.05583424408329
 11
292.32429200405807
 21
109.85967962388699
  0
LINE
  8
_0-0_0
  6
CONTINUOUS
 62
    7
 10
289.32428210646526
 20
109.05583424408329
 11
292.32429200405807
 21
109.05583424408329
  0
LINE
  8
_0-0_0
  6
CONTINUOUS
 62
    7
 10
319.32428210646526
 20
134.71534385134689
 11
319.32428210646526
 21
108.05583094488568
  0
LINE
  8
_0-0_0
  6
CONTINUOUS
 62
    7
 10
289.32428210646526
 20
134.71534385134689
 11
289.32428210646526
 21
108.05583094488568
  0
LINE
  8
_0-0_0
  6
CONTINUOUS
 62
    7
 10
319.32428210646526
 20
109.05583424408329
 11
289.32428210646526
 21
109.05583424408329
  0
LINE
  8
_0-0_0
  6
CONTINUOUS
 62
    7
 10
315.79311788560364
 20
130.67069251055298
 11
316.59697563739843
 21
133.67069003615478
  0
LINE
  8
_0-0_0
  6
CONTINUOUS
 62
    7
 10
316.59697563739843
 20
133.67069003615478
 11
317.40080864521093
 21
130.67069251055298
  0
LINE
  8
_0-0_0
  6
CONTINUOUS
 62
    7
 10
316.59697563739843
 20
133.67069003615478
 11
316.59697563739843
 21
130.67069251055298
  0
LINE
  8
_0-0_0
  6
CONTINUOUS
 62
    7
 10
317.40080864521093
 20
142.67069498495118
 11
316.59697563739843
 21
139.67069745934938
  0
LINE
  8
_0-0_0
  6
CONTINUOUS
 62
    7
 10
316.59697563739843
 20
139.67069745934938
 11
315.79311788560364
 21
142.67069498495118
  0
LINE
  8
_0-0_0
  6
CONTINUOUS
 62
    7
 10
316.59697563739843
 20
139.67069745934938
 11
316.59697563739843
 21
142.67069498495118
  0
LINE
  8
_0-0_0
  6
CONTINUOUS
 62
    7
 10
312.82428540566275
 20
133.67069003615478
 11
317.59697893659603
 21
133.67069003615478
  0
LINE
  8
_0-0_0
  6
CONTINUOUS
 62
    7
 10
312.82428540566275
 20
139.67069745934938
 11
317.59697893659603
 21
139.67069745934938
  0
LINE
  8
_0-0_0
  6
CONTINUOUS
 62
    7
 10
316.59697563739843
 20
133.67069003615478
 11
316.59697563739843
 21
139.67069745934938
  0
LINE
  8
_0-0_0
  6
CONTINUOUS
 62
    7
 10
316.59697563739843
 20
139.67069745934938
 11
316.59697563739843
 21
145.67069251055298
  0
LINE
  8
_0-0_0
  6
CONTINUOUS
 62
    7
 10
266.38809518712395
 20
125.52069036607449
 11
267.19195293891875
 21
128.52068789167629
  0
LINE
  8
_0-0_0
  6
CONTINUOUS
 62
    7
 10
267.19195293891875
 20
128.52068789167629
 11
267.99581069071331
 21
125.52069036607449
  0
LINE
  8
_0-0_0
  6
CONTINUOUS
 62
    7
 10
267.19195293891875
 20
128.52068789167629
 11
267.19195293891875
 21
125.52069036607449
  0
LINE
  8
_0-0_0
  6
CONTINUOUS
 62
    7
 10
267.99581069071331
 20
147.82069712942959
 11
267.19195293891875
 21
144.82069960382788
  0
LINE
  8
_0-0_0
  6
CONTINUOUS
 62
    7
 10
267.19195293891875
 20
144.82069960382788
 11
266.38809518712395
 21
147.82069712942959
  0
LINE
  8
_0-0_0
  6
CONTINUOUS
 62
    7
 10
267.19195293891875
 20
144.82069960382788
 11
267.19195293891875
 21
147.82069712942959
  0
LINE
  8
_0-0_0
  6
CONTINUOUS
 62
    7
 10
272.97429992213245
 20
128.52068789167629
 11
266.19194963972092
 21
128.52068789167629
  0
LINE
  8
_0-0_0
  6
CONTINUOUS
 62
    7
 10
272.97429992213245
 20
144.82069960382788
 11
266.19194963972092
 21
144.82069960382788
  0
LINE
  8
_0-0_0
  6
CONTINUOUS
 62
    7
 10
267.19195293891875
 20
128.52068789167629
 11
267.19195293891875
 21
122.52069284047269
  0
LINE
  8
_0-0_0
  6
CONTINUOUS
 62
    7
 10
267.19195293891875
 20
128.52068789167629
 11
267.19195293891875
 21
144.82069960382788
  0
LINE
  8
_0-0_0
  6
CONTINUOUS
 62
    7
 10
267.19195293891875
 20
144.82069960382788
 11
267.19195293891875
 21
150.82069465503139
  0
LINE
  8
_0-0_0
  6
CONTINUOUS
 62
    7
 10
256.87044612937473
 20
125.44069307141658
 11
257.67427913718734
 21
128.44069059701829
  0
LINE
  8
_0-0_0
  6
CONTINUOUS
 62
    7
 10
257.67427913718734
 20
128.44069059701829
 11
258.47813688898202
 21
125.44069307141658
  0
LINE
  8
_0-0_0
  6
CONTINUOUS
 62
    7
 10
257.67427913718734
 20
128.44069059701829
 11
257.67427913718734
 21
125.44069307141658
  0
LINE
  8
_0-0_0
  6
CONTINUOUS
 62
    7
 10
258.47813688898202
 20
147.90069442408759
 11
257.67427913718734
 21
144.90069689848579
  0
LINE
  8
_0-0_0
  6
CONTINUOUS
 62
    7
 10
257.67427913718734
 20
144.90069689848579
 11
256.87044612937473
 21
147.90069442408759
  0
LINE
  8
_0-0_0
  6
CONTINUOUS
 62
    7
 10
257.67427913718734
 20
144.90069689848579
 11
257.67427913718734
 21
147.90069442408759
  0
LINE
  8
_0-0_0
  6
CONTINUOUS
 62
    7
 10
276.87429794261374
 20
128.44069059701829
 11
256.67430058197192
 21
128.44069059701829
  0
LINE
  8
_0-0_0
  6
CONTINUOUS
 62
    7
 10
276.87429794261374
 20
144.90069689848579
 11
256.67430058197192
 21
144.90069689848579
  0
LINE
  8
_0-0_0
  6
CONTINUOUS
 62
    7
 10
257.67427913718734
 20
128.44069059701829
 11
257.67427913718734
 21
122.44069554581478
  0
LINE
  8
_0-0_0
  6
CONTINUOUS
 62
    7
 10
257.67427913718734
 20
128.44069059701829
 11
257.67427913718734
 21
144.90069689848579
  0
LINE
  8
_0-0_0
  6
CONTINUOUS
 62
    7
 10
257.67427913718734
 20
144.90069689848579
 11
257.67427913718734
 21
150.90069194968927
  0
LINE
  8
_0-0_0
  6
CONTINUOUS
 62
    7
 10
344.17045701672703
 20
141.12069481999129
 11
344.97429002453953
 21
144.12069234559308
  0
LINE
  8
_0-0_0
  6
CONTINUOUS
 62
    7
 10
344.97429002453953
 20
144.12069234559308
 11
345.77814777633427
 21
141.12069481999129
  0
LINE
  8
_0-0_0
  6
CONTINUOUS
 62
    7
 10
344.97429002453953
 20
144.12069234559308
 11
344.97429002453953
 21
141.12069481999129
  0
LINE
  8
_0-0_0
  6
CONTINUOUS
 62
    7
 10
345.77814777633427
 20
132.22069267551279
 11
344.97429002453953
 21
129.22069514991108
  0
LINE
  8
_0-0_0
  6
CONTINUOUS
 62
    7
 10
344.97429002453953
 20
129.22069514991108
 11
344.17045701672703
 21
132.22069267551279
  0
LINE
  8
_0-0_0
  6
CONTINUOUS
 62
    7
 10
344.97429002453953
 20
129.22069514991108
 11
344.97429002453953
 21
132.22069267551279
  0
LINE
  8
_0-0_0
  6
CONTINUOUS
 62
    7
 10
335.72429662293473
 20
144.12069234559308
 11
345.97429332373713
 21
144.12069234559308
  0
LINE
  8
_0-0_0
  6
CONTINUOUS
 62
    7
 10
335.72429662293473
 20
129.22069514991108
 11
345.97429332373713
 21
129.22069514991108
  0
LINE
  8
_0-0_0
  6
CONTINUOUS
 62
    7
 10
344.97429002453953
 20
144.12069234559308
 11
344.97429002453953
 21
129.22069514991108
  0
LINE
  8
_0-0_0
  6
CONTINUOUS
 62
    7
 10
301.32429695285447
 20
119.24454010081899
 11
304.32428210646515
 21
118.44069472101538
  0
LINE
  8
_0-0_0
  6
CONTINUOUS
 62
    7
 10
304.32428210646515
 20
118.44069472101538
 11
301.32429695285447
 21
117.6368493412117
  0
LINE
  8
_0-0_0
  6
CONTINUOUS
 62
    7
 10
297.32428375606406
 20
117.6368493412117
 11
294.32429860245333
 21
118.44069472101538
  0
LINE
  8
_0-0_0
  6
CONTINUOUS
 62
    7
 10
294.32429860245333
 20
118.44069472101538
 11
297.32428375606406
 21
119.24454010081899
  0
LINE
  8
_0-0_0
  6
CONTINUOUS
 62
    7
 10
294.32429860245333
 20
118.44069472101538
 11
297.32428375606406
 21
118.44069472101538
  0
LINE
  8
_0-0_0
  6
CONTINUOUS
 62
    7
 10
304.32428210646515
 20
134.1206964695902
 11
304.32428210646515
 21
117.44069142181769
  0
LINE
  8
_0-0_0
  6
CONTINUOUS
 62
    7
 10
294.32429860245333
 20
134.42069251055298
 11
294.32429860245333
 21
117.44069142181769
  0
LINE
  8
_0-0_0
  6
CONTINUOUS
 62
    7
 10
304.32428210646515
 20
118.44069472101538
 11
294.32429860245333
 21
118.44069472101538
  0
LINE
  8
_0-0_0
  6
CONTINUOUS
 62
    7
 10
277.37429959221254
 20
81.636848104012586
 11
274.37428969461962
 21
82.44069348381629
  0
LINE
  8
_0-0_0
  6
CONTINUOUS
 62
    7
 10
274.37428969461962
 20
82.44069348381629
 11
277.37429959221254
 21
83.24453886361988
  0
LINE
  8
_0-0_0
  6
CONTINUOUS
 62
    7
 10
274.37428969461962
 20
82.44069348381629
 11
277.37429959221254
 21
82.44069348381629
  0
LINE
  8
_0-0_0
  6
CONTINUOUS
 62
    7
 10
331.27428936469994
 20
83.24453886361988
 11
334.27429926229286
 21
82.44069348381629
  0
LINE
  8
_0-0_0
  6
CONTINUOUS
 62
    7
 10
334.27429926229286
 20
82.44069348381629
 11
331.27428936469994
 21
81.636848104012586
  0
LINE
  8
_0-0_0
  6
CONTINUOUS
 62
    7
 10
334.27429926229286
 20
82.44069348381629
 11
331.27428936469994
 21
82.44069348381629
  0
LINE
  8
_0-0_0
  6
CONTINUOUS
 62
    7
 10
274.37428969461962
 20
127.77069778926918
 11
274.37428969461962
 21
81.440696370614177
  0
LINE
  8
_0-0_0
  6
CONTINUOUS
 62
    7
 10
334.27429926229286
 20
127.77069778926918
 11
334.27429926229286
 21
81.440696370614177
  0
LINE
  8
_0-0_0
  6
CONTINUOUS
 62
    7
 10
274.37428969461962
 20
82.44069348381629
 11
334.27429926229286
 21
82.44069348381629
  0
LINE
  8
_0-0_0
  6
CONTINUOUS
 62
    7
 10
323.71178606550234
 20
92.631323185172874
 11
326.71179596309526
 21
91.827477805369284
  0
LINE
  8
_0-0_0
  6
CONTINUOUS
 62
    7
 10
326.71179596309526
 20
91.827477805369284
 11
323.71178606550234
 21
91.02363242556558
  0
LINE
  8
_0-0_0
  6
CONTINUOUS
 62
    7
 10
326.71179596309526
 20
91.827477805369284
 11
323.71178606550234
 21
91.827477805369284
  0
LINE
  8
_0-0_0
  6
CONTINUOUS
 62
    7
 10
284.93677814742796
 20
91.02363242556558
 11
281.93679299381722
 21
91.827477805369284
  0
LINE
  8
_0-0_0
  6
CONTINUOUS
 62
    7
 10
281.93679299381722
 20
91.827477805369284
 11
284.93677814742796
 21
92.631323185172874
  0
LINE
  8
_0-0_0
  6
CONTINUOUS
 62
    7
 10
281.93679299381722
 20
91.827477805369284
 11
284.93677814742796
 21
91.827477805369284
  0
LINE
  8
_0-0_0
  6
CONTINUOUS
 62
    7
 10
326.71179596309526
 20
135.44569960382788
 11
326.71179596309526
 21
90.827486878162688
  0
LINE
  8
_0-0_0
  6
CONTINUOUS
 62
    7
 10
281.93679299381722
 20
135.19569877902848
 11
281.93679299381722
 21
90.827486878162688
  0
LINE
  8
_0-0_0
  6
CONTINUOUS
 62
    7
 10
326.71179596309526
 20
91.827477805369284
 11
281.93679299381722
 21
91.827477805369284
  0
LINE
  8
_0-0_0
  6
CONTINUOUS
 62
    7
 10
280.67428078678603
 20
156.68491947555509
 11
277.67429563317552
 21
157.48876485535868
  0
LINE
  8
_0-0_0
  6
CONTINUOUS
 62
    7
 10
277.67429563317552
 20
157.48876485535868
 11
280.67428078678603
 21
158.29261023516239
  0
LINE
  8
_0-0_0
  6
CONTINUOUS
 62
    7
 10
277.67429563317552
 20
157.48876485535868
 11
280.67428078678603
 21
157.48876485535868
  0
LINE
  8
_0-0_0
  6
CONTINUOUS
 62
    7
 10
327.97428342614415
 20
158.29261023516239
 11
330.97429332373713
 21
157.48876485535868
  0
LINE
  8
_0-0_0
  6
CONTINUOUS
 62
    7
 10
330.97429332373713
 20
157.48876485535868
 11
327.97428342614415
 21
156.68491947555509
  0
LINE
  8
_0-0_0
  6
CONTINUOUS
 62
    7
 10
330.97429332373713
 20
157.48876485535868
 11
327.97428342614415
 21
157.48876485535868
  0
LINE
  8
_0-0_0
  6
CONTINUOUS
 62
    7
 10
277.67429563317552
 20
145.90068782569227
 11
277.67429563317552
 21
158.48876815455628
  0
LINE
  8
_0-0_0
  6
CONTINUOUS
 62
    7
 10
330.97429332373713
 20
145.90068782569227
 11
330.97429332373713
 21
158.48876815455628
  0
LINE
  8
_0-0_0
  6
CONTINUOUS
 62
    7
 10
277.67429563317552
 20
157.48876485535868
 11
330.97429332373713
 21
157.48876485535868
  0
LINE
  8
_0-0_0
  6
CONTINUOUS
 62
    7
 10
279.67430223157072
 20
163.76328201778477
 11
276.67429233397786
 21
164.56712739758848
  0
LINE
  8
_0-0_0
  6
CONTINUOUS
 62
    7
 10
276.67429233397786
 20
164.56712739758848
 11
279.67430223157072
 21
165.37097277739198
  0
LINE
  8
_0-0_0
  6
CONTINUOUS
 62
    7
 10
276.67429233397786
 20
164.56712739758848
 11
279.67430223157072
 21
164.56712739758848
  0
LINE
  8
_0-0_0
  6
CONTINUOUS
 62
    7
 10
328.97428672534181
 20
165.37097277739198
 11
331.97429662293473
 21
164.56712739758848
  0
LINE
  8
_0-0_0
  6
CONTINUOUS
 62
    7
 10
331.97429662293473
 20
164.56712739758848
 11
328.97428672534181
 21
163.76328201778477
  0
LINE
  8
_0-0_0
  6
CONTINUOUS
 62
    7
 10
331.97429662293473
 20
164.56712739758848
 11
328.97428672534181
 21
164.56712739758848
  0
LINE
  8
_0-0_0
  6
CONTINUOUS
 62
    7
 10
276.67429233397786
 20
145.82069053103439
 11
276.67429233397786
 21
165.56713069678599
  0
LINE
  8
_0-0_0
  6
CONTINUOUS
 62
    7
 10
331.97429662293473
 20
145.82069053103439
 11
331.97429662293473
 21
165.56713069678599
  0
LINE
  8
_0-0_0
  6
CONTINUOUS
 62
    7
 10
276.67429233397786
 20
164.56712739758848
 11
331.97429662293473
 21
164.56712739758848
  0
LINE
  8
_0-0_0
  6
CONTINUOUS
 62
    7
 10
331.97429662293473
 20
173.70453567989418
 11
334.97428177654535
 21
172.90069030009047
  0
LINE
  8
_0-0_0
  6
CONTINUOUS
 62
    7
 10
334.97428177654535
 20
172.90069030009047
 11
331.97429662293473
 21
172.09684492028688
  0
LINE
  8
_0-0_0
  6
CONTINUOUS
 62
    7
 10
334.97428177654535
 20
172.90069030009047
 11
331.97429662293473
 21
172.90069030009047
  0
LINE
  8
_0-0_0
  6
CONTINUOUS
 62
    7
 10
276.67429233397786
 20
172.09684492028688
 11
273.67428243638494
 21
172.90069030009047
  0
LINE
  8
_0-0_0
  6
CONTINUOUS
 62
    7
 10
273.67428243638494
 20
172.90069030009047
 11
276.67429233397786
 21
173.70453567989418
  0
LINE
  8
_0-0_0
  6
CONTINUOUS
 62
    7
 10
273.67428243638494
 20
172.90069030009047
 11
276.67429233397786
 21
172.90069030009047
  0
LINE
  8
_0-0_0
  6
CONTINUOUS
 62
    7
 10
334.97428177654535
 20
145.52069449007149
 11
334.97428177654535
 21
173.90069359928819
  0
LINE
  8
_0-0_0
  6
CONTINUOUS
 62
    7
 10
273.67428243638494
 20
145.52069449007149
 11
273.67428243638494
 21
173.90069359928819
  0
LINE
  8
_0-0_0
  6
CONTINUOUS
 62
    7
 10
334.97428177654535
 20
172.90069030009047
 11
273.67428243638494
 21
172.90069030009047
  0
LINE
  8
_0-0_0
  6
CONTINUOUS
 62
    7
 10
322.08679926229286
 20
122.8773278568367
 11
325.08678441590342
 21
122.07348247703308
  0
LINE
  8
_0-0_0
  6
CONTINUOUS
 62
    7
 10
325.08678441590342
 20
122.07348247703308
 11
322.08679926229286
 21
121.26963709722949
  0
LINE
  8
_0-0_0
  6
CONTINUOUS
 62
    7
 10
325.08678441590342
 20
122.07348247703308
 11
322.08679926229286
 21
122.07348247703308
  0
LINE
  8
_0-0_0
  6
CONTINUOUS
 62
    7
 10
329.71178111670582
 20
121.26963709722949
 11
326.71179596309526
 21
122.07348247703308
  0
LINE
  8
_0-0_0
  6
CONTINUOUS
 62
    7
 10
326.71179596309526
 20
122.07348247703308
 11
329.71178111670582
 21
122.8773278568367
  0
LINE
  8
_0-0_0
  6
CONTINUOUS
 62
    7
 10
326.71179596309526
 20
122.07348247703308
 11
329.71178111670582
 21
122.07348247703308
  0
LINE
  8
_0-0_0
  6
CONTINUOUS
 62
    7
 10
325.08678441590342
 20
135.67069663454998
 11
325.08678441590342
 21
121.07347917783548
  0
LINE
  8
_0-0_0
  6
CONTINUOUS
 62
    7
 10
326.71179596309526
 20
135.67069663454998
 11
326.71179596309526
 21
121.07347917783548
  0
LINE
  8
_0-0_0
  6
CONTINUOUS
 62
    7
 10
325.08678441590342
 20
122.07348247703308
 11
319.08678936469994
 21
122.07348247703308
  0
LINE
  8
_0-0_0
  6
CONTINUOUS
 62
    7
 10
325.08678441590342
 20
122.07348247703308
 11
326.71179596309526
 21
122.07348247703308
  0
LINE
  8
_0-0_0
  6
CONTINUOUS
 62
    7
 10
332.15015210488156
 20
139.77603259184519
 11
324.98835285445927
 21
139.77603259184519
  0
LINE
  8
_0-0_0
  6
CONTINUOUS
 62
    7
 10
324.98835285445927
 20
139.77603259184519
 11
332.15015210488156
 21
139.77603259184519
  0
LINE
  8
_0-0_0
  6
CONTINUOUS
 62
    7
 10
332.15015210488156
 20
139.77603259184519
 11
324.98835285445927
 21
139.77603259184519
  0
LINE
  8
_0-0_0
  6
CONTINUOUS
 62
    7
 10
304.32428210646515
 20
136.67068756175649
 11
304.32428210646515
 21
136.9206883865559
  0
LINE
  8
_0-0_0
  6
CONTINUOUS
 62
    7
 10
304.32428210646515
 20
136.67068756175649
 11
304.07429365365687
 21
136.67068756175649
  0
LINE
  8
_0-0_0
  6
CONTINUOUS
 62
    7
 10
304.32428210646515
 20
136.67068756175649
 11
304.32428210646515
 21
136.42069910894818
  0
LINE
  8
_0-0_0
  6
CONTINUOUS
 62
    7
 10
304.32428210646515
 20
136.67068756175649
 11
304.57429530325567
 21
136.67068756175649
  0
LINE
  8
_0-0_0
  6
CONTINUOUS
 62
    7
 10
304.32428210646515
 20
137.1706892113553
 11
304.32428210646515
 21
138.22068772671628
  0
LINE
  8
_0-0_0
  6
CONTINUOUS
 62
    7
 10
303.82430520084853
 20
136.67068756175649
 11
302.77429431349645
 21
136.67068756175649
  0
LINE
  8
_0-0_0
  6
CONTINUOUS
 62
    7
 10
304.32428210646515
 20
136.17069828414878
 11
304.32428210646515
 21
135.1206997687878
  0
LINE
  8
_0-0_0
  6
CONTINUOUS
 62
    7
 10
304.82428375606395
 20
136.67068756175649
 11
305.87429464341614
 21
136.67068756175649
  0
LINE
  8
_0-0_0
  6
CONTINUOUS
 62
    7
 10
274.37428969461962
 20
129.22069514991108
 11
274.37428969461962
 21
129.47069597471048
  0
LINE
  8
_0-0_0
  6
CONTINUOUS
 62
    7
 10
274.37428969461962
 20
129.22069514991108
 11
274.12430124181145
 21
129.22069514991108
  0
LINE
  8
_0-0_0
  6
CONTINUOUS
 62
    7
 10
274.37428969461962
 20
129.22069514991108
 11
274.37428969461962
 21
128.97069432511159
  0
LINE
  8
_0-0_0
  6
CONTINUOUS
 62
    7
 10
274.37428969461962
 20
129.22069514991108
 11
274.62427814742796
 21
129.22069514991108
  0
LINE
  8
_0-0_0
  6
CONTINUOUS
 62
    7
 10
274.37428969461962
 20
129.47069597471048
 11
274.37428969461962
 21
129.6706892113553
  0
LINE
  8
_0-0_0
  6
CONTINUOUS
 62
    7
 10
274.12430124181145
 20
129.22069514991108
 11
273.92429563317552
 21
129.22069514991108
  0
LINE
  8
_0-0_0
  6
CONTINUOUS
 62
    7
 10
274.37428969461962
 20
128.97069432511159
 11
274.37428969461962
 21
128.77068871647569
  0
LINE
  8
_0-0_0
  6
CONTINUOUS
 62
    7
 10
274.62427814742796
 20
129.22069514991108
 11
274.82428375606395
 21
129.22069514991108
  0
LINE
  8
_0-0_0
  6
CONTINUOUS
 62
    7
 10
274.37428969461962
 20
144.12069234559308
 11
274.37428969461962
 21
144.37069317039249
  0
LINE
  8
_0-0_0
  6
CONTINUOUS
 62
    7
 10
274.37428969461962
 20
144.12069234559308
 11
274.12430124181145
 21
144.12069234559308
  0
LINE
  8
_0-0_0
  6
CONTINUOUS
 62
    7
 10
274.37428969461962
 20
144.12069234559308
 11
274.37428969461962
 21
143.87069152079368
  0
LINE
  8
_0-0_0
  6
CONTINUOUS
 62
    7
 10
274.37428969461962
 20
144.12069234559308
 11
274.62427814742796
 21
144.12069234559308
  0
LINE
  8
_0-0_0
  6
CONTINUOUS
 62
    7
 10
274.37428969461962
 20
144.37069317039249
 11
274.37428969461962
 21
144.57069877902848
  0
LINE
  8
_0-0_0
  6
CONTINUOUS
 62
    7
 10
274.12430124181145
 20
144.12069234559308
 11
273.92429563317552
 21
144.12069234559308
  0
LINE
  8
_0-0_0
  6
CONTINUOUS
 62
    7
 10
274.37428969461962
 20
143.87069152079368
 11
274.37428969461962
 21
143.67069828414878
  0
LINE
  8
_0-0_0
  6
CONTINUOUS
 62
    7
 10
274.62427814742796
 20
144.12069234559308
 11
274.82428375606395
 21
144.12069234559308
  0
LINE
  8
_0-0_0
  6
CONTINUOUS
 62
    7
 10
334.27429926229286
 20
144.12069234559308
 11
334.27429926229286
 21
144.37069317039249
  0
LINE
  8
_0-0_0
  6
CONTINUOUS
 62
    7
 10
334.27429926229286
 20
144.12069234559308
 11
334.02428606550234
 21
144.12069234559308
  0
LINE
  8
_0-0_0
  6
CONTINUOUS
 62
    7
 10
334.27429926229286
 20
144.12069234559308
 11
334.27429926229286
 21
143.87069152079368
  0
LINE
  8
_0-0_0
  6
CONTINUOUS
 62
    7
 10
334.27429926229286
 20
144.12069234559308
 11
334.52428771510114
 21
144.12069234559308
  0
LINE
  8
_0-0_0
  6
CONTINUOUS
 62
    7
 10
334.27429926229286
 20
144.37069317039249
 11
334.27429926229286
 21
144.57069877902848
  0
LINE
  8
_0-0_0
  6
CONTINUOUS
 62
    7
 10
334.02428606550234
 20
144.12069234559308
 11
333.82430520084853
 21
144.12069234559308
  0
LINE
  8
_0-0_0
  6
CONTINUOUS
 62
    7
 10
334.27429926229286
 20
143.87069152079368
 11
334.27429926229286
 21
143.67069828414878
  0
LINE
  8
_0-0_0
  6
CONTINUOUS
 62
    7
 10
334.52428771510114
 20
144.12069234559308
 11
334.72429332373713
 21
144.12069234559308
  0
LINE
  8
_0-0_0
  6
CONTINUOUS
 62
    7
 10
334.27429926229286
 20
129.22069514991108
 11
334.27429926229286
 21
129.47069597471048
  0
LINE
  8
_0-0_0
  6
CONTINUOUS
 62
    7
 10
334.27429926229286
 20
129.22069514991108
 11
334.02428606550234
 21
129.22069514991108
  0
LINE
  8
_0-0_0
  6
CONTINUOUS
 62
    7
 10
334.27429926229286
 20
129.22069514991108
 11
334.27429926229286
 21
128.97069432511159
  0
LINE
  8
_0-0_0
  6
CONTINUOUS
 62
    7
 10
334.27429926229286
 20
129.22069514991108
 11
334.52428771510114
 21
129.22069514991108
  0
LINE
  8
_0-0_0
  6
CONTINUOUS
 62
    7
 10
334.27429926229286
 20
129.47069597471048
 11
334.27429926229286
 21
129.6706892113553
  0
LINE
  8
_0-0_0
  6
CONTINUOUS
 62
    7
 10
334.02428606550234
 20
129.22069514991108
 11
333.82430520084853
 21
129.22069514991108
  0
LINE
  8
_0-0_0
  6
CONTINUOUS
 62
    7
 10
334.27429926229286
 20
128.97069432511159
 11
334.27429926229286
 21
128.77068871647569
  0
LINE
  8
_0-0_0
  6
CONTINUOUS
 62
    7
 10
334.52428771510114
 20
129.22069514991108
 11
334.72429332373713
 21
129.22069514991108
  0
LINE
  8
_0-0_0
  6
CONTINUOUS
 62
    7
 10
281.93679299381722
 20
136.67068756175649
 11
281.93679299381722
 21
136.9206883865559
  0
LINE
  8
_0-0_0
  6
CONTINUOUS
 62
    7
 10
281.93679299381722
 20
136.67068756175649
 11
281.68677979702682
 21
136.67068756175649
  0
LINE
  8
_0-0_0
  6
CONTINUOUS
 62
    7
 10
281.93679299381722
 20
136.67068756175649
 11
281.93679299381722
 21
136.42069910894818
  0
LINE
  8
_0-0_0
  6
CONTINUOUS
 62
    7
 10
281.93679299381722
 20
136.67068756175649
 11
282.18678144662562
 21
136.67068756175649
  0
LINE
  8
_0-0_0
  6
CONTINUOUS
 62
    7
 10
281.93679299381722
 20
136.9206883865559
 11
281.93679299381722
 21
137.14569778926918
  0
LINE
  8
_0-0_0
  6
CONTINUOUS
 62
    7
 10
281.68677979702682
 20
136.67068756175649
 11
281.46178276630462
 21
136.67068756175649
  0
LINE
  8
_0-0_0
  6
CONTINUOUS
 62
    7
 10
281.93679299381722
 20
136.42069910894818
 11
281.93679299381722
 21
136.19568970623499
  0
LINE
  8
_0-0_0
  6
CONTINUOUS
 62
    7
 10
282.18678144662562
 20
136.67068756175649
 11
282.41177847734775
 21
136.67068756175649
  0
LINE
  8
_0-0_0
  6
CONTINUOUS
 62
    7
 10
308.32429530325567
 20
136.67068756175649
 11
308.07428210646526
 21
136.67068756175649
  0
LINE
  8
_0-0_0
  6
CONTINUOUS
 62
    7
 10
308.32429530325567
 20
136.67068756175649
 11
308.57428375606406
 21
136.67068756175649
  0
LINE
  8
_0-0_0
  6
CONTINUOUS
 62
    7
 10
308.07428210646526
 20
136.67068756175649
 11
307.92428408598374
 21
136.67068756175649
  0
LINE
  8
_0-0_0
  6
CONTINUOUS
 62
    7
 10
308.57428375606406
 20
136.67068756175649
 11
308.72428177654524
 21
136.67068756175649
  0
LINE
  8
_0-0_0
  6
CONTINUOUS
 62
    7
 10
341.12429959221254
 20
136.67068756175649
 11
341.12429959221254
 21
136.9206883865559
  0
LINE
  8
_0-0_0
  6
CONTINUOUS
 62
    7
 10
341.12429959221254
 20
136.67068756175649
 11
340.87428639542202
 21
136.67068756175649
  0
LINE
  8
_0-0_0
  6
CONTINUOUS
 62
    7
 10
341.12429959221254
 20
136.67068756175649
 11
341.12429959221254
 21
136.42069910894818
  0
LINE
  8
_0-0_0
  6
CONTINUOUS
 62
    7
 10
341.12429959221254
 20
136.67068756175649
 11
341.37428804502082
 21
136.67068756175649
  0
LINE
  8
_0-0_0
  6
CONTINUOUS
 62
    7
 10
341.12429959221254
 20
136.9206883865559
 11
341.12429959221254
 21
137.07069877902848
  0
LINE
  8
_0-0_0
  6
CONTINUOUS
 62
    7
 10
340.87428639542202
 20
136.67068756175649
 11
340.72428837494073
 21
136.67068756175649
  0
LINE
  8
_0-0_0
  6
CONTINUOUS
 62
    7
 10
341.12429959221254
 20
136.42069910894818
 11
341.12429959221254
 21
136.27068871647569
  0
LINE
  8
_0-0_0
  6
CONTINUOUS
 62
    7
 10
341.37428804502082
 20
136.67068756175649
 11
341.52428606550234
 21
136.67068756175649
  0
LINE
  8
_0-0_0
  6
CONTINUOUS
 62
    7
 10
294.32429860245333
 20
136.67068756175649
 11
294.32429860245333
 21
136.9206883865559
  0
LINE
  8
_0-0_0
  6
CONTINUOUS
 62
    7
 10
294.32429860245333
 20
136.67068756175649
 11
294.07428540566275
 21
136.67068756175649
  0
LINE
  8
_0-0_0
  6
CONTINUOUS
 62
    7
 10
294.32429860245333
 20
136.67068756175649
 11
294.32429860245333
 21
136.42069910894818
  0
LINE
  8
_0-0_0
  6
CONTINUOUS
 62
    7
 10
294.32429860245333
 20
136.67068756175649
 11
294.57428705526166
 21
136.67068756175649
  0
LINE
  8
_0-0_0
  6
CONTINUOUS
 62
    7
 10
294.32429860245333
 20
137.1706892113553
 11
294.32429860245333
 21
137.9206916857535
  0
LINE
  8
_0-0_0
  6
CONTINUOUS
 62
    7
 10
293.82429695285447
 20
136.67068756175649
 11
293.07428210646526
 21
136.67068756175649
  0
LINE
  8
_0-0_0
  6
CONTINUOUS
 62
    7
 10
294.32429860245333
 20
136.17069828414878
 11
294.32429860245333
 21
135.42069580975058
  0
LINE
  8
_0-0_0
  6
CONTINUOUS
 62
    7
 10
294.82430025205213
 20
136.67068756175649
 11
295.57429035445927
 21
136.67068756175649
  0
LINE
  8
_0-0_0
  6
CONTINUOUS
 62
    7
 10
299.82429200405807
 20
147.5337287951285
 11
296.82428210646526
 21
146.72988341532488
  0
LINE
  8
_0-0_0
  6
CONTINUOUS
 62
    7
 10
296.82428210646526
 20
146.72988341532488
 11
299.82429200405807
 21
145.92603803552129
  0
LINE
  8
_0-0_0
  6
CONTINUOUS
 62
    7
 10
296.82428210646526
 20
146.72988341532488
 11
299.82429200405807
 21
146.72988341532488
  0
LINE
  8
_0-0_0
  6
CONTINUOUS
 62
    7
 10
308.82429695285447
 20
145.92603803552129
 11
311.82428210646526
 21
146.72988341532488
  0
LINE
  8
_0-0_0
  6
CONTINUOUS
 62
    7
 10
311.82428210646526
 20
146.72988341532488
 11
308.82429695285447
 21
147.5337287951285
  0
LINE
  8
_0-0_0
  6
CONTINUOUS
 62
    7
 10
311.82428210646526
 20
146.72988341532488
 11
308.82429695285447
 21
146.72988341532488
  0
LINE
  8
_0-0_0
  6
CONTINUOUS
 62
    7
 10
296.82428210646526
 20
140.67067601456478
 11
296.82428210646526
 21
147.72988671452248
  0
LINE
  8
_0-0_0
  6
CONTINUOUS
 62
    7
 10
311.82428210646526
 20
140.67067601456478
 11
311.82428210646526
 21
147.72988671452248
  0
LINE
  8
_0-0_0
  6
CONTINUOUS
 62
    7
 10
296.82428210646526
 20
146.72988341532488
 11
311.82428210646526
 21
146.72988341532488
  0
LINE
  8
_0-0_0
  6
CONTINUOUS
 62
    7
 10
304.32428210646515
 20
146.72988341532488
 11
301.32429695285447
 21
146.72988341532488
  0
LINE
  8
_0-0_0
  6
CONTINUOUS
 62
    7
 10
281.67428408598374
 20
150.6237820441784
 11
278.67429893237306
 21
151.42762742398199
  0
LINE
  8
_0-0_0
  6
CONTINUOUS
 62
    7
 10
278.67429893237306
 20
151.42762742398199
 11
281.67428408598374
 21
152.23147280378569
  0
LINE
  8
_0-0_0
  6
CONTINUOUS
 62
    7
 10
278.67429893237306
 20
151.42762742398199
 11
281.67428408598374
 21
151.42762742398199
  0
LINE
  8
_0-0_0
  6
CONTINUOUS
 62
    7
 10
326.97430487092885
 20
152.23147280378569
 11
329.97429002453941
 21
151.42762742398199
  0
LINE
  8
_0-0_0
  6
CONTINUOUS
 62
    7
 10
329.97429002453941
 20
151.42762742398199
 11
326.97430487092885
 21
150.6237820441784
  0
LINE
  8
_0-0_0
  6
CONTINUOUS
 62
    7
 10
329.97429002453941
 20
151.42762742398199
 11
326.97430487092885
 21
151.42762742398199
  0
LINE
  8
_0-0_0
  6
CONTINUOUS
 62
    7
 10
278.67429893237306
 20
138.52069613967038
 11
278.67429893237306
 21
152.42763072317959
  0
LINE
  8
_0-0_0
  6
CONTINUOUS
 62
    7
 10
329.97429002453941
 20
138.52069613967038
 11
329.97429002453941
 21
152.42763072317959
  0
LINE
  8
_0-0_0
  6
CONTINUOUS
 62
    7
 10
278.67429893237306
 20
151.42762742398199
 11
329.97429002453941
 21
151.42762742398199
  0
LINE
  8
_0-0_0
  6
CONTINUOUS
 62
    7
 10
316.59697563739843
 20
133.67069003615478
 11
316.59697563739843
 21
121.27795107526998
  0
LINE
  8
_0-0_0
  6
CONTINUOUS
 62
    7
 10
254.03998199825145
 20
179.27756094514967
 11
286.99985715661296
 21
179.27756094514967
  0
LINE
  8
_0-0_0
  6
CONTINUOUS
 62
    7
 10
286.99985715661296
 20
179.27756094514967
 11
293.79683113254202
 21
138.0841875485597
  0
LINE
  8
_0-0_0
  6
CONTINUOUS
 62
    7
 10
293.79683113254202
 20
138.0841875485597
 11
292.55896393184526
 21
140.816900577751
  0
LINE
  8
_0-0_0
  6
CONTINUOUS
 62
    7
 10
293.79683113254202
 20
138.0841875485597
 11
294.09116080156656
 21
141.06970984453739
  0
LINE
  8
_0-0_0
  6
CONTINUOUS
 62
    7
 10
335.23664222048546
 20
128.29852404692329
 11
338.36391041885963
 21
116.627356724816
  0
LINE
  8
_0-0_0
  6
CONTINUOUS
 62
    7
 10
335.23664222048546
 20
128.29852404692329
 11
336.73664716928187
 21
125.70045539721889
  0
LINE
  8
_0-0_0
  6
CONTINUOUS
 62
    7
 10
335.23664222048546
 20
128.29852404692329
 11
335.23664222048546
 21
125.29852652132149
  0
LINE
  8
_0-0_0
  6
CONTINUOUS
 62
    7
 10
338.36391041885963
 20
116.627356724816
 11
349.94102586438333
 21
116.627356724816
  0
LINE
  8
_0-0_0
  6
CONTINUOUS
 62
    7
 10
326.71179596309526
 20
122.07348247703308
 11
335.37869742266025
 21
122.07348247703308
  0
LINE
  8
_0-0_0
  6
CONTINUOUS
 62
    7
 10
306.71123509949723
 20
140.36158656012009
 11
306.50759212546842
 21
143.35466814267917
  0
LINE
  8
_0-0_0
  6
CONTINUOUS
 62
    7
 10
306.71123509949723
 20
140.36158656012009
 11
308.03142552918473
 21
143.05548865313108
  0
LINE
  8
_0-0_0
  6
CONTINUOUS
 62
    7
 10
319.67173710540942
 20
138.01635192118428
 11
319.45859244219145
 21
141.00877778821339
  0
LINE
  8
_0-0_0
  6
CONTINUOUS
 62
    7
 10
319.67173710540942
 20
138.01635192118428
 11
320.98336611723374
 21
140.7144357471978
  0
LINE
  8
_0-0_0
  6
CONTINUOUS
 62
    7
 10
297.81874275363572
 20
67.533798903078292
 11
383.89365433513922
 21
67.533798903078292
  0
LINE
  8
_0-0_0
  6
CONTINUOUS
 62
    7
 10
297.81874275363572
 20
67.533798903078292
 11
282.23787776999973
 21
135.7818960908422
  0
LINE
  8
_0-0_0
  6
CONTINUOUS
 62
    7
 10
282.23787776999973
 20
135.7818960908422
 11
283.63982231708593
 21
133.12962574798959
  0
LINE
  8
_0-0_0
  6
CONTINUOUS
 62
    7
 10
282.23787776999973
 20
135.7818960908422
 11
282.12586176229286
 21
132.78398943174167
  0
LINE
  8
_0-0_0
  6
CONTINUOUS
 62
    7
 10
340.70323124603442
 20
57.819484674298735
 11
295.56669395190431
 21
57.819484674298735
  0
LINE
  8
_0-0_0
  6
CONTINUOUS
 62
    7
 10
295.56669395190431
 20
57.819484674298735
 11
275.27509436892296
 21
127.19958193464498
  0
LINE
  8
_0-0_0
  6
CONTINUOUS
 62
    7
 10
275.27509436892296
 20
127.19958193464498
 11
276.83376729966614
 21
124.6362785800209
  0
LINE
  8
_0-0_0
  6
CONTINUOUS
 62
    7
 10
275.27509436892296
 20
127.19958193464498
 11
275.34328878404114
 21
124.20036384448449
  0
LINE
  8
_0-0_0
  6
CENTER2
 62
    7
 10
346.64139108556145
 20
136.67068756175649
 11
365.35162750606395
 21
136.67068756175649
  0
LINE
  8
_0-0_0
  6
CENTER2
 62
    7
 10
243.48672305082755
 20
136.67068756175649
 11
252.68433344198033
 21
136.67068756175649
  0
LINE
  8
_0-0_0
  6
CENTER2
 62
    7
 10
268.60055361723374
 20
136.67068756175649
 11
339.06834684991952
 21
136.67068756175649
  0
LINE
  8
_0-0_0
  6
CONTINUOUS
 62
    7
 10
327.62821409020677
 20
179.23268773331478
 11
319.67173710540942
 21
138.01635192118428
  0
LINE
  8
_0-0_0
  6
CONTINUOUS
 62
    7
 10
327.62821409020677
 20
179.23268773331478
 11
393.03088940956894
 21
179.23268773331478
  0
LINE
  8
_0-0_0
  6
CONTINUOUS
 62
    7
 10
393.03088940956894
 20
179.23268773331478
 11
327.62821409020677
 21
179.23268773331478
  0
LINE
  8
_0-0_0
  6
CONTINUOUS
 62
    7
 10
327.62821409020677
 20
179.23268773331478
 11
393.03088940956894
 21
179.23268773331478
  0
LINE
  8
_0-0_0
  6
CONTINUOUS
 62
    7
 10
393.03088940956894
 20
179.23268773331478
 11
327.62821409020677
 21
179.23268773331478
  0
LINE
  8
_0-0_0
  6
CONTINUOUS
 62
    7
 10
327.62821409020677
 20
179.23268773331478
 11
393.03088940956894
 21
179.23268773331478
  0
LINE
  8
_0-0_0
  6
CONTINUOUS
 62
    7
 10
393.03088940956894
 20
179.23268773331478
 11
327.62821409020677
 21
179.23268773331478
  0
LINE
  8
_0-0_0
  6
CONTINUOUS
 62
    7
 10
316.39518846203953
 20
189.68436026155598
 11
306.71123509949723
 21
140.36158656012009
  0
LINE
  8
_0-0_0
  6
CONTINUOUS
 62
    7
 10
316.39518846203953
 20
189.68436026155598
 11
360.84572359189582
 21
189.68436026155598
  0
LINE
  8
_0-0_0
  6
CONTINUOUS
 62
    7
 10
360.84572359189582
 20
189.68436026155598
 11
316.39518846203953
 21
189.68436026155598
  0
LINE
  8
_0-0_0
  6
CONTINUOUS
 62
    7
 10
316.39518846203953
 20
189.68436026155598
 11
360.84572359189582
 21
189.68436026155598
  0
LINE
  8
_0-0_0
  6
CONTINUOUS
 62
    7
 10
360.84572359189582
 20
189.68436026155598
 11
316.39518846203953
 21
189.68436026155598
  0
LINE
  8
_0-0_0
  6
CONTINUOUS
 62
    7
 10
316.39518846203953
 20
189.68436026155598
 11
360.84572359189582
 21
189.68436026155598
  0
LINE
  8
_0-0_0
  6
CONTINUOUS
 62
    7
 10
360.84572359189582
 20
189.68436026155598
 11
316.39518846203953
 21
189.68436026155598
  0
LINE
  8
_0-0_0
  6
CENTER2
 62
    7
 10
304.32428210646515
 20
218.61715230653058
 11
304.32428210646515
 21
212.97980505938108
  0
LINE
  8
_0-0_0
  6
CENTER2
 62
    7
 10
334.32428210646526
 20
218.61715230653058
 11
334.32428210646526
 21
212.97980505938108
  0
LINE
  8
_0-0_0
  6
CONTINUOUS
 62
    7
 10
333.82430520084853
 20
216.51116723210069
 11
334.82428375606406
 21
216.51116723210069
  0
LINE
  8
_0-0_0
  6
CONTINUOUS
 62
    7
 10
333.82430520084853
 20
216.51116723210069
 11
333.82430520084853
 21
215.61115436522988
  0
LINE
  8
_0-0_0
  6
CONTINUOUS
 62
    7
 10
333.82430520084853
 20
215.61115436522988
 11
334.82428375606406
 21
215.61115436522988
  0
LINE
  8
_0-0_0
  6
CONTINUOUS
 62
    7
 10
334.82428375606406
 20
216.51116723210069
 11
334.82428375606406
 21
215.61115436522988
  0
LINE
  8
_0-0_0
  6
CENTER2
 62
    7
 10
274.32428210646515
 20
218.61715230653058
 11
274.32428210646515
 21
212.97980505938108
  0
LINE
  8
_0-0_0
  6
CONTINUOUS
 62
    7
 10
273.82428045686635
 20
216.51116723210069
 11
273.82428045686635
 21
215.61115436522988
  0
LINE
  8
_0-0_0
  6
CONTINUOUS
 62
    7
 10
274.82428375606395
 20
215.61115436522988
 11
273.82428045686635
 21
215.61115436522988
  0
LINE
  8
_0-0_0
  6
CONTINUOUS
 62
    7
 10
274.82428375606395
 20
216.51116723210069
 11
274.82428375606395
 21
215.61115436522988
  0
LINE
  8
_0-0_0
  6
CONTINUOUS
 62
    7
 10
274.82428375606395
 20
216.51116723210069
 11
273.82428045686635
 21
216.51116723210069
  0
LINE
  8
_0-0_0
  6
CONTINUOUS
 62
    7
 10
334.55430216558676
 20
216.01116558250189
 11
334.55430216558676
 21
216.21117119113779
  0
LINE
  8
_0-0_0
  6
CONTINUOUS
 62
    7
 10
333.99429635899895
 20
216.21117119113779
 11
333.99429635899895
 21
216.01116558250189
  0
LINE
  8
_0-0_0
  6
CONTINUOUS
 62
    7
 10
274.65429259791364
 20
216.01116558250189
 11
274.65429259791364
 21
216.21117119113779
  0
LINE
  8
_0-0_0
  6
CONTINUOUS
 62
    7
 10
274.09428679132571
 20
216.21117119113779
 11
274.09428679132571
 21
216.01116558250189
  0
LINE
  8
_0-0_0
  6
CONTINUOUS
 62
    7
 10
277.67429563317552
 20
215.91115040619277
 11
277.67429563317552
 21
216.41115205579158
  0
LINE
  8
_0-0_0
  6
CONTINUOUS
 62
    7
 10
330.97429332373713
 20
216.41115205579158
 11
277.67429563317552
 21
216.41115205579158
  0
LINE
  8
_0-0_0
  6
CONTINUOUS
 62
    7
 10
330.97429332373713
 20
215.91115040619277
 11
330.97429332373713
 21
216.41115205579158
  0
LINE
  8
_0-0_0
  6
CONTINUOUS
 62
    7
 10
330.77428771510114
 20
215.71116954153908
 11
277.87430124181145
 21
215.71116954153908
  0
LINE
  8
_0-0_0
  6
CONTINUOUS
 62
    7
 10
331.99428976060364
 20
216.50913822555509
 11
330.97429332373713
 21
216.50913822555509
  0
LINE
  8
_0-0_0
  6
CONTINUOUS
 62
    7
 10
330.97429332373713
 20
216.50913822555509
 11
330.97429332373713
 21
216.41115205579158
  0
LINE
  8
_0-0_0
  6
CONTINUOUS
 62
    7
 10
277.67429563317552
 20
216.41115205579158
 11
277.67429563317552
 21
216.50913822555509
  0
LINE
  8
_0-0_0
  6
CONTINUOUS
 62
    7
 10
277.67429563317552
 20
216.50913822555509
 11
276.65429919630895
 21
216.50913822555509
  0
LINE
  8
_0-0_0
  6
CONTINUOUS
 62
    7
 10
276.67429233397786
 20
216.51116723210069
 11
331.97429662293473
 21
216.51116723210069
  0
LINE
  8
_0-0_0
  6
CONTINUOUS
 62
    7
 10
332.07428705526166
 20
216.06114842667418
 11
332.07428705526166
 21
216.41115205579158
  0
LINE
  8
_0-0_0
  6
CONTINUOUS
 62
    7
 10
334.67428573558254
 20
216.01116558250189
 11
332.12429464341614
 21
216.01116558250189
  0
LINE
  8
_0-0_0
  6
CONTINUOUS
 62
    7
 10
334.67428573558254
 20
215.91115040619277
 11
334.67428573558254
 21
216.01116558250189
  0
LINE
  8
_0-0_0
  6
CONTINUOUS
 62
    7
 10
332.07428705526166
 20
215.91115040619277
 11
334.67428573558254
 21
215.91115040619277
  0
LINE
  8
_0-0_0
  6
CONTINUOUS
 62
    7
 10
331.97429662293473
 20
216.36116921161928
 11
331.97429662293473
 21
216.01116558250189
  0
LINE
  8
_0-0_0
  6
CONTINUOUS
 62
    7
 10
330.97429332373713
 20
216.41115205579158
 11
331.92428903478026
 21
216.41115205579158
  0
LINE
  8
_0-0_0
  6
CONTINUOUS
 62
    7
 10
276.67429233397786
 20
216.01116558250189
 11
276.67429233397786
 21
216.36116921161928
  0
LINE
  8
_0-0_0
  6
CONTINUOUS
 62
    7
 10
273.97427847734764
 20
215.91115040619277
 11
276.57430190165093
 21
215.91115040619277
  0
LINE
  8
_0-0_0
  6
CONTINUOUS
 62
    7
 10
273.97427847734764
 20
216.01116558250189
 11
273.97427847734764
 21
215.91115040619277
  0
LINE
  8
_0-0_0
  6
CONTINUOUS
 62
    7
 10
276.52429431349645
 20
216.01116558250189
 11
273.97427847734764
 21
216.01116558250189
  0
LINE
  8
_0-0_0
  6
CONTINUOUS
 62
    7
 10
276.57430190165093
 20
216.41115205579158
 11
276.57430190165093
 21
216.06114842667418
  0
LINE
  8
_0-0_0
  6
CONTINUOUS
 62
    7
 10
276.72429992213233
 20
216.41115205579158
 11
277.67429563317552
 21
216.41115205579158
  0
LINE
  8
_0-0_0
  6
CONTINUOUS
 62
    7
 10
334.67428573558254
 20
216.01116558250189
 11
334.97428177654535
 21
216.01116558250189
  0
LINE
  8
_0-0_0
  6
CONTINUOUS
 62
    7
 10
334.97428177654535
 20
216.01116558250189
 11
334.97428177654535
 21
215.91115040619277
  0
LINE
  8
_0-0_0
  6
CONTINUOUS
 62
    7
 10
334.97428177654535
 20
215.91115040619277
 11
334.67428573558254
 21
215.91115040619277
  0
LINE
  8
_0-0_0
  6
CONTINUOUS
 62
    7
 10
273.67428243638494
 20
215.91115040619277
 11
273.67428243638494
 21
216.01116558250189
  0
LINE
  8
_0-0_0
  6
CONTINUOUS
 62
    7
 10
273.97427847734764
 20
215.91115040619277
 11
273.67428243638494
 21
215.91115040619277
  0
LINE
  8
_0-0_0
  6
CONTINUOUS
 62
    7
 10
273.67428243638494
 20
216.01116558250189
 11
273.97427847734764
 21
216.01116558250189
  0
LINE
  8
_0-0_0
  6
CONTINUOUS
 62
    7
 10
334.27429926229286
 20
216.21117119113779
 11
334.55430216558676
 21
216.21117119113779
  0
LINE
  8
_0-0_0
  6
CONTINUOUS
 62
    7
 10
333.99429635899895
 20
216.21117119113779
 11
334.27429926229286
 21
216.21117119113779
  0
LINE
  8
_0-0_0
  6
CONTINUOUS
 62
    7
 10
274.37428969461962
 20
216.21117119113779
 11
274.65429259791364
 21
216.21117119113779
  0
LINE
  8
_0-0_0
  6
CONTINUOUS
 62
    7
 10
274.09428679132571
 20
216.21117119113779
 11
274.37428969461962
 21
216.21117119113779
  0
LINE
  8
_0-0_0
  6
CONTINUOUS
 62
    7
 10
329.97429002453941
 20
215.71116954153908
 11
329.97429002453941
 21
215.61115436522988
  0
LINE
  8
_0-0_0
  6
CONTINUOUS
 62
    7
 10
329.97429002453941
 20
215.61115436522988
 11
329.87429959221254
 21
215.61115436522988
  0
LINE
  8
_0-0_0
  6
CONTINUOUS
 62
    7
 10
329.87429959221254
 20
215.61115436522988
 11
329.87429959221254
 21
215.71116954153908
  0
LINE
  8
_0-0_0
  6
CONTINUOUS
 62
    7
 10
278.77428936469994
 20
215.61115436522988
 11
278.67429893237306
 21
215.61115436522988
  0
LINE
  8
_0-0_0
  6
CONTINUOUS
 62
    7
 10
278.67429893237306
 20
215.61115436522988
 11
278.67429893237306
 21
215.71116954153908
  0
LINE
  8
_0-0_0
  6
CONTINUOUS
 62
    7
 10
278.77428936469994
 20
215.71116954153908
 11
278.77428936469994
 21
215.61115436522988
  0
LINE
  8
_0-0_0
  6
CONTINUOUS
 62
    7
 10
330.24922041146937
 20
219.5111523857114
 11
329.44536265967463
 21
216.51116723210069
  0
LINE
  8
_0-0_0
  6
CONTINUOUS
 62
    7
 10
329.44536265967463
 20
216.51116723210069
 11
328.64152965186213
 21
219.5111523857114
  0
LINE
  8
_0-0_0
  6
CONTINUOUS
 62
    7
 10
329.44536265967463
 20
216.51116723210069
 11
329.44536265967463
 21
219.5111523857114
  0
LINE
  8
_0-0_0
  6
CONTINUOUS
 62
    7
 10
328.64152965186213
 20
212.61116921161928
 11
329.44536265967463
 21
215.61115436522988
  0
LINE
  8
_0-0_0
  6
CONTINUOUS
 62
    7
 10
329.44536265967463
 20
215.61115436522988
 11
330.24922041146937
 21
212.61116921161928
  0
LINE
  8
_0-0_0
  6
CONTINUOUS
 62
    7
 10
329.44536265967463
 20
215.61115436522988
 11
329.44536265967463
 21
212.61116921161928
  0
LINE
  8
_0-0_0
  6
CONTINUOUS
 62
    7
 10
333.82430520084853
 20
216.51116723210069
 11
328.44535936047691
 21
216.51116723210069
  0
LINE
  8
_0-0_0
  6
CONTINUOUS
 62
    7
 10
333.82430520084853
 20
215.61115436522988
 11
328.44535936047691
 21
215.61115436522988
  0
LINE
  8
_0-0_0
  6
CONTINUOUS
 62
    7
 10
329.44536265967463
 20
216.51116723210069
 11
329.44536265967463
 21
234.27088831793267
  0
LINE
  8
_0-0_0
  6
CONTINUOUS
 62
    7
 10
329.44536265967463
 20
216.51116723210069
 11
329.44536265967463
 21
215.61115436522988
  0
LINE
  8
_0-0_0
  6
CONTINUOUS
 62
    7
 10
329.44536265967463
 20
215.61115436522988
 11
329.44536265967463
 21
209.61115931402639
  0
LINE
  8
_0-0_0
  6
CONTINUOUS
 62
    7
 10
81.516376239172075
 20
208.97100774888708
 11
81.518256781824078
 21
208.97006747756109
  0
LINE
  8
_0-0_0
  6
CONTINUOUS
 62
    7
 10
81.516376239172075
 20
208.96234735509478
 11
81.516376239172075
 21
208.12723795370118
  0
LINE
  8
_0-0_0
  6
CONTINUOUS
 62
    7
 10
129.59962489309945
 20
243.44956956265389
 11
124.39406013644825
 21
231.49077819071559
  0
LINE
  8
_0-0_0
  6
CONTINUOUS
 62
    7
 10
124.39406013644825
 20
231.49077819071559
 11
134.88632516759264
 21
237.16630540249758
  0
LINE
  8
_0-0_0
  6
CONTINUOUS
 62
    7
 10
134.88632516759264
 20
237.16630540249758
 11
130.09467774624554
 21
226.15842526894608
  0
LINE
  8
_0-0_0
  6
CONTINUOUS
 62
    7
 10
121.74138151788824
 20
245.30289383419108
 11
133.26722743216183
 21
239.53997087705432
  0
LINE
  8
_0-0_0
  6
CONTINUOUS
 62
    7
 10
120.97770799328944
 20
245.4322058855002
 11
83.288911408618844
 21
226.58780759316488
  0
LINE
  8
_0-0_0
  6
CONTINUOUS
 62
    7
 10
122.17360940006733
 20
245.58608871119696
 11
121.76011271246173
 21
245.79282468300858
  0
LINE
  8
_0-0_0
  6
CONTINUOUS
 62
    7
 10
83.314892589995523
 20
225.99254161185158
 11
83.371482077432177
 21
225.9642344961421
  0
LINE
  8
_0-0_0
  6
CONTINUOUS
 62
    7
 10
90.152446696836734
 20
223.90786110615059
 11
89.516031473019183
 21
224.22606871805928
  0
LINE
  8
_0-0_0
  6
CONTINUOUS
 62
    7
 10
94.897303247723556
 20
220.20133628298748
 11
94.953892735160238
 21
220.17305391126038
  0
LINE
  8
_0-0_0
  6
CONTINUOUS
 62
    7
 10
90.364180953065656
 20
201.19711660921217
 11
91.950814583766643
 21
200.40379979386159
  0
LINE
  8
_0-0_0
  6
CONTINUOUS
 62
    7
 10
92.083021681000588
 20
200.40379979386159
 11
93.669630567719366
 21
201.19711660921217
  0
LINE
  8
_0-0_0
  6
CONTINUOUS
 62
    7
 10
135.38068518923535
 20
222.05468529850688
 11
135.93104084274043
 21
222.44383390756528
  0
LINE
  8
_0-0_0
  6
CONTINUOUS
 62
    7
 10
133.76257721309514
 20
221.243577559909
 11
135.34918609981395
 21
222.03689437525949
  0
LINE
  8
_0-0_0
  6
CONTINUOUS
 62
    7
 10
136.19184241579794
 20
222.91567690534819
 11
136.19184241579794
 21
223.7672163109647
  0
LINE
  8
_0-0_0
  6
CONTINUOUS
 62
    7
 10
79.922591597596892
 20
206.53394819177129
 11
80.472947251101971
 21
206.1447748387308
  0
LINE
  8
_0-0_0
  6
CONTINUOUS
 62
    7
 10
80.504396852558898
 20
206.12700865946559
 11
82.0910304832599
 21
205.33369184411509
  0
LINE
  8
_0-0_0
  6
CONTINUOUS
 62
    7
 10
79.661765280557177
 20
207.85730585118858
 11
79.661790024539471
 21
207.003984878849
  0
LINE
  8
_0-0_0
  6
CONTINUOUS
 62
    7
 10
134.33205996488994
 20
224.88307093512009
 11
126.06410573135955
 21
229.0170480518853
  0
LINE
  8
_0-0_0
  6
CONTINUOUS
 62
    7
 10
123.96054556719145
 20
226.19034500606608
 11
132.22112609400733
 21
222.06005474265808
  0
LINE
  8
_0-0_0
  6
CONTINUOUS
 62
    7
 10
91.905632072153466
 20
202.02440691221048
 11
83.643319466579143
 21
206.1555632149977
  0
LINE
  8
_0-0_0
  6
CONTINUOUS
 62
    7
 10
82.137400706021722
 20
205.31916712652639
 11
90.364180953065656
 21
201.20577700300439
  0
LINE
  8
_0-0_0
  6
CONTINUOUS
 62
    7
 10
121.60932288454794
 20
229.0170480518853
 11
81.521572475447385
 21
208.97316047534397
  0
LINE
  8
_0-0_0
  6
CONTINUOUS
 62
    7
 10
83.632481602347724
 20
206.15016902686418
 11
123.71288304871594
 21
226.19034500606608
  0
LINE
  8
_0-0_0
  6
CONTINUOUS
 62
    7
 10
132.21028822977593
 20
222.0654736747739
 11
92.128179448631528
 21
202.02440691221048
  0
LINE
  8
_0-0_0
  6
CONTINUOUS
 62
    7
 10
93.669630567719366
 20
201.20577700300439
 11
133.71620699033335
 21
221.2290528423203
  0
LINE
  8
_0-0_0
  6
CONTINUOUS
 62
    7
 10
124.04883209590764
 20
246.22495358925858
 11
123.62457177601743
 21
246.22495358925858
  0
LINE
  8
_0-0_0
  6
CONTINUOUS
 62
    7
 10
135.15041769029114
 20
240.67418553604921
 11
124.04883209590764
 21
246.22495358925858
  0
LINE
  8
_0-0_0
  6
CONTINUOUS
 62
    7
 10
135.15041769029114
 20
240.4620553761041
 11
135.15041769029114
 21
240.67418553604921
  0
LINE
  8
_0-0_0
  6
CONTINUOUS
 62
    7
 10
133.31193980811204
 20
239.54281643501452
 11
135.15041769029114
 21
240.4620553761041
  0
LINE
  8
_0-0_0
  6
CONTINUOUS
 62
    7
 10
121.78609389383844
 20
245.3057146481691
 11
133.31193980811204
 21
239.54281643501452
  0
LINE
  8
_0-0_0
  6
CONTINUOUS
 62
    7
 10
121.78609389383844
 20
245.3057146481691
 11
123.62457177601743
 21
246.22495358925858
  0
LINE
  8
_0-0_0
  6
CONTINUOUS
 62
    7
 10
123.62457177601743
 20
246.22495358925858
 11
123.62457177601743
 21
246.31155752718087
  0
LINE
  8
_0-0_0
  6
CONTINUOUS
 62
    7
 10
123.62457177601743
 20
246.31155752718087
 11
124.04883209590764
 21
246.31155752718087
  0
LINE
  8
_0-0_0
  6
CONTINUOUS
 62
    7
 10
124.04883209590764
 20
246.31155752718087
 11
124.04883209590764
 21
246.22495358925858
  0
LINE
  8
_0-0_0
  6
CONTINUOUS
 62
    7
 10
121.78609389383844
 20
245.43562055505248
 11
121.78609389383844
 21
245.73873433778061
  0
LINE
  8
_0-0_0
  6
CONTINUOUS
 62
    7
 10
121.71540033651154
 20
245.66007321816488
 11
121.71540033651154
 21
245.3569841794191
  0
LINE
  8
_0-0_0
  6
CONTINUOUS
 62
    7
 10
121.00829155536714
 20
245.34983316854499
 11
121.68004118585704
 21
245.68570798378988
  0
LINE
  8
_0-0_0
  6
CONTINUOUS
 62
    7
 10
121.00829155536714
 20
245.34983316854499
 11
121.00829155536714
 21
245.43468028372661
  0
LINE
  8
_0-0_0
  6
CONTINUOUS
 62
    7
 10
121.72952915038404
 20
245.79529908123499
 11
121.00829155536714
 21
245.43468028372661
  0
LINE
  8
_0-0_0
  6
CONTINUOUS
 62
    7
 10
123.62457177601743
 20
246.31155752718087
 11
121.82145304449294
 21
245.41001053340977
  0
LINE
  8
_0-0_0
  6
CONTINUOUS
 62
    7
 10
135.15041769029114
 20
240.67418553604921
 11
135.15041769029114
 21
240.76078947397139
  0
LINE
  8
_0-0_0
  6
CONTINUOUS
 62
    7
 10
135.15041769029114
 20
240.76078947397139
 11
124.04883209590764
 21
246.31155752718087
  0
LINE
  8
_0-0_0
  6
CONTINUOUS
 62
    7
 10
120.95172681191274
 20
245.37811554027206
 11
83.262930227242137
 21
226.53371724793678
  0
LINE
  8
_0-0_0
  6
CONTINUOUS
 62
    7
 10
83.268571855198232
 20
226.56482043364198
 11
82.5982326316974
 21
226.2296631938828
  0
LINE
  8
_0-0_0
  6
CONTINUOUS
 62
    7
 10
94.173591254480343
 20
220.40663710382788
 11
94.833909165164442
 21
220.73679605916999
  0
LINE
  8
_0-0_0
  6
CONTINUOUS
 62
    7
 10
82.647745340206683
 20
226.16956006096478
 11
94.173591254480343
 21
220.40663710382788
  0
LINE
  8
_0-0_0
  6
CONTINUOUS
 62
    7
 10
82.647745340206683
 20
226.16956006096478
 11
83.262930227242137
 21
226.47715250448249
  0
LINE
  8
_0-0_0
  6
CONTINUOUS
 62
    7
 10
121.00829155536714
 20
245.34983316854499
 11
121.04365070602174
 21
245.33214122122661
  0
LINE
  8
_0-0_0
  6
CONTINUOUS
 62
    7
 10
132.53413746964074
 20
239.58691021140811
 11
132.85373074455634
 21
239.74670684886587
  0
LINE
  8
_0-0_0
  6
CONTINUOUS
 62
    7
 10
132.49877831898624
 20
239.60457741474431
 11
132.53413746964074
 21
239.58691021140811
  0
LINE
  8
_0-0_0
  6
CONTINUOUS
 62
    7
 10
94.809981734315656
 20
220.760179122409
 11
132.49877831898624
 21
239.60457741474431
  0
LINE
  8
_0-0_0
  6
CONTINUOUS
 62
    7
 10
123.59807097101324
 20
241.04089135319447
 11
122.72458365312895
 21
240.60416006624348
  0
LINE
  8
_0-0_0
  6
CONTINUOUS
 62
    7
 10
123.04279126503774
 20
240.44505626028911
 11
123.91625383893974
 21
240.88178754723998
  0
LINE
  8
_0-0_0
  6
CONTINUOUS
 62
    7
 10
125.46304965819654
 20
242.41534533598576
 11
124.47311715978014
 21
241.9203667147865
  0
LINE
  8
_0-0_0
  6
CONTINUOUS
 62
    7
 10
124.47311715978014
 20
241.9203667147865
 11
125.67517981814164
 21
241.31931064162347
  0
LINE
  8
_0-0_0
  6
CONTINUOUS
 62
    7
 10
125.67517981814164
 20
241.31931064162347
 11
125.90161199983504
 21
241.43253910446128
  0
LINE
  8
_0-0_0
  6
CONTINUOUS
 62
    7
 10
126.38228859928604
 20
241.67287740418686
 11
126.66513706054025
 21
241.8142892628228
  0
LINE
  8
_0-0_0
  6
CONTINUOUS
 62
    7
 10
126.66513706054025
 20
241.8142892628228
 11
126.39372031909184
 21
241.95001000553816
  0
LINE
  8
_0-0_0
  6
CONTINUOUS
 62
    7
 10
125.78125727010534
 20
242.29160068068597
 11
126.41764774994064
 21
241.97339306877728
  0
LINE
  8
_0-0_0
  6
CONTINUOUS
 62
    7
 10
125.74589811945074
 20
242.27390873336759
 11
125.78125727010534
 21
242.29160068068597
  0
LINE
  8
_0-0_0
  6
CONTINUOUS
 62
    7
 10
125.74589811945074
 20
242.27390873336759
 11
125.46304965819654
 21
242.41534533598576
  0
LINE
  8
_0-0_0
  6
CONTINUOUS
 62
    7
 10
90.390558038158545
 20
223.676999751632
 11
91.380515280557177
 21
224.17197837283118
  0
LINE
  8
_0-0_0
  6
CONTINUOUS
 62
    7
 10
91.380515280557177
 20
224.17197837283118
 11
90.178427878213427
 21
224.77303444599428
  0
LINE
  8
_0-0_0
  6
CONTINUOUS
 62
    7
 10
90.178427878213427
 20
224.77303444599428
 11
89.188470635814795
 21
224.27805582479488
  0
LINE
  8
_0-0_0
  6
CONTINUOUS
 62
    7
 10
89.188470635814795
 20
224.27805582479488
 11
89.471319097069028
 21
224.13661922217668
  0
LINE
  8
_0-0_0
  6
CONTINUOUS
 62
    7
 10
89.435959946414485
 20
224.11895201884059
 11
89.471319097069028
 21
224.13661922217668
  0
LINE
  8
_0-0_0
  6
CONTINUOUS
 62
    7
 10
90.178427878213427
 20
223.7830772035957
 11
90.390558038158545
 21
223.676999751632
  0
LINE
  8
_0-0_0
  6
CONTINUOUS
 62
    7
 10
118.39198659073455
 20
238.70303042097316
 11
117.82631441220833
 21
238.420181959719
  0
LINE
  8
_0-0_0
  6
CONTINUOUS
 62
    7
 10
118.67483505198874
 20
237.99592163982879
 11
119.24050723051494
 21
238.2787701010829
  0
LINE
  8
_0-0_0
  6
CONTINUOUS
 62
    7
 10
97.461621105620509
 20
227.38931466664468
 11
98.027318028129017
 21
227.67216312789878
  0
LINE
  8
_0-0_0
  6
CONTINUOUS
 62
    7
 10
97.178797388348556
 20
228.09642344778899
 11
96.613100465840105
 21
227.81357498653477
  0
LINE
  8
_0-0_0
  6
CONTINUOUS
 62
    7
 10
104.74483907700984
 20
229.33387000078739
 11
115.35142130621173
 21
234.63717348737939
  0
LINE
  8
_0-0_0
  6
CONTINUOUS
 62
    7
 10
115.35142130621173
 20
234.63717348737939
 11
111.10879336332744
 21
236.7584750868304
  0
LINE
  8
_0-0_0
  6
CONTINUOUS
 62
    7
 10
111.10879336332744
 20
236.7584750868304
 11
100.50218639014334
 21
231.4551716002384
  0
LINE
  8
_0-0_0
  6
CONTINUOUS
 62
    7
 10
100.50218639014334
 20
231.4551716002384
 11
104.74483907700984
 21
229.33387000078739
  0
LINE
  8
_0-0_0
  6
CONTINUOUS
 62
    7
 10
120.81029020929454
 20
244.70119441748909
 11
83.404342085878156
 21
225.99820798378988
  0
LINE
  8
_0-0_0
  6
CONTINUOUS
 62
    7
 10
83.262930227242137
 20
226.10069755832538
 11
83.262930227242137
 21
226.53371724793678
  0
LINE
  8
_0-0_0
  6
CONTINUOUS
 62
    7
 10
120.95172681191274
 20
244.94509585066066
 11
120.95172681191274
 21
245.37811554027206
  0
LINE
  8
_0-0_0
  6
CONTINUOUS
 62
    7
 10
120.86685495274894
 20
244.67291204576196
 11
120.81029020929454
 21
244.70119441748909
  0
LINE
  8
_0-0_0
  6
CONTINUOUS
 62
    7
 10
120.95172681191274
 20
244.94509585066066
 11
121.00829155536714
 21
244.91681347893348
  0
LINE
  8
_0-0_0
  6
CONTINUOUS
 62
    7
 10
121.00829155536714
 20
244.91681347893348
 11
121.00829155536714
 21
245.30653119958379
  0
LINE
  8
_0-0_0
  6
CONTINUOUS
 62
    7
 10
83.404342085878156
 20
225.99820798378988
 11
83.460906829332544
 21
225.9699256120627
  0
LINE
  8
_0-0_0
  6
CONTINUOUS
 62
    7
 10
83.460906829332544
 20
225.9699256120627
 11
120.86685495274894
 21
244.67291204576196
  0
LINE
  8
_0-0_0
  6
CONTINUOUS
 62
    7
 10
126.27623589130464
 20
241.31592071605337
 11
126.38228859928604
 21
241.39280026894608
  0
LINE
  8
_0-0_0
  6
CONTINUOUS
 62
    7
 10
125.85197557141444
 20
241.52805087599847
 11
126.27623589130464
 21
241.31592071605337
  0
LINE
  8
_0-0_0
  6
CONTINUOUS
 62
    7
 10
125.74589811945074
 20
241.71100788085499
 11
125.85197557141444
 21
241.52805087599847
  0
LINE
  8
_0-0_0
  6
CONTINUOUS
 62
    7
 10
125.74589811945074
 20
241.71100788085499
 11
125.74589811945074
 21
242.2306067644065
  0
LINE
  8
_0-0_0
  6
CONTINUOUS
 62
    7
 10
126.38228859928604
 20
241.91242389647999
 11
125.74589811945074
 21
242.2306067644065
  0
LINE
  8
_0-0_0
  6
CONTINUOUS
 62
    7
 10
126.38228859928604
 20
241.39280026894608
 11
126.38228859928604
 21
241.91242389647999
  0
LINE
  8
_0-0_0
  6
CONTINUOUS
 62
    7
 10
125.67517981814164
 20
241.67564873020041
 11
125.74589811945074
 21
241.71100788085499
  0
LINE
  8
_0-0_0
  6
CONTINUOUS
 62
    7
 10
125.85197557141444
 20
241.52805087599847
 11
125.78125727010534
 21
241.49271646932618
  0
LINE
  8
_0-0_0
  6
CONTINUOUS
 62
    7
 10
125.78125727010534
 20
241.49271646932618
 11
125.67517981814164
 21
241.67564873020041
  0
LINE
  8
_0-0_0
  6
CONTINUOUS
 62
    7
 10
125.67517981814164
 20
241.67564873020041
 11
125.67517981814164
 21
242.23854958271301
  0
LINE
  8
_0-0_0
  6
CONTINUOUS
 62
    7
 10
126.20551758999554
 20
241.28058630938108
 11
126.27623589130464
 21
241.31592071605337
  0
LINE
  8
_0-0_0
  6
CONTINUOUS
 62
    7
 10
126.20551758999554
 20
241.28058630938108
 11
125.78125727010534
 21
241.49271646932618
  0
LINE
  8
_0-0_0
  6
CONTINUOUS
 62
    7
 10
125.67517981814164
 20
241.40591457954577
 11
125.67517981814164
 21
241.31931064162347
  0
LINE
  8
_0-0_0
  6
CONTINUOUS
 62
    7
 10
125.67517981814164
 20
241.40591457954577
 11
124.55972109770244
 21
241.96366868374758
  0
LINE
  8
_0-0_0
  6
CONTINUOUS
 62
    7
 10
126.57853312261794
 20
241.857591231784
 11
126.38228859928604
 21
241.75948134210921
  0
LINE
  8
_0-0_0
  6
CONTINUOUS
 62
    7
 10
126.13286925806985
 20
241.63477167150097
 11
126.05903321499554
 21
241.59785364996389
  0
LINE
  8
_0-0_0
  6
CONTINUOUS
 62
    7
 10
125.81500806191274
 20
241.47584107342249
 11
125.67517981814164
 21
241.40591457954577
  0
LINE
  8
_0-0_0
  6
CONTINUOUS
 62
    7
 10
123.91625383893974
 20
240.88178754723998
 11
123.91625383893974
 21
240.96839148516239
  0
LINE
  8
_0-0_0
  6
CONTINUOUS
 62
    7
 10
123.96482627612303
 20
241.00464141917837
 11
123.91625383893974
 21
240.96839148516239
  0
LINE
  8
_0-0_0
  6
CONTINUOUS
 62
    7
 10
123.04279126503774
 20
240.44505626028911
 11
123.04279126503774
 21
240.5316601982114
  0
LINE
  8
_0-0_0
  6
CONTINUOUS
 62
    7
 10
123.91625383893974
 20
240.96839148516239
 11
123.04279126503774
 21
240.5316601982114
  0
LINE
  8
_0-0_0
  6
CONTINUOUS
 62
    7
 10
132.39270086702254
 20
238.9099890886252
 11
94.986752743606161
 21
220.2070026549259
  0
LINE
  8
_0-0_0
  6
CONTINUOUS
 62
    7
 10
94.845340884970213
 20
220.3094922294614
 11
94.845340884970213
 21
220.69920995011168
  0
LINE
  8
_0-0_0
  6
CONTINUOUS
 62
    7
 10
132.53413746964074
 20
239.54360824244696
 11
94.845340884970213
 21
220.69920995011168
  0
LINE
  8
_0-0_0
  6
CONTINUOUS
 62
    7
 10
132.53413746964074
 20
239.15389052179671
 11
132.53413746964074
 21
239.54360824244696
  0
LINE
  8
_0-0_0
  6
CONTINUOUS
 62
    7
 10
132.44926561047694
 20
238.88170671689801
 11
132.39270086702254
 21
238.9099890886252
  0
LINE
  8
_0-0_0
  6
CONTINUOUS
 62
    7
 10
132.53413746964074
 20
239.15389052179671
 11
132.59070221309514
 21
239.12560815006947
  0
LINE
  8
_0-0_0
  6
CONTINUOUS
 62
    7
 10
132.59070221309514
 20
239.12560815006947
 11
132.59070221309514
 21
239.55862783968087
  0
LINE
  8
_0-0_0
  6
CONTINUOUS
 62
    7
 10
94.986752743606161
 20
220.2070026549259
 11
95.043317487060577
 21
220.17872028319869
  0
LINE
  8
_0-0_0
  6
CONTINUOUS
 62
    7
 10
95.043317487060577
 20
220.17872028319869
 11
132.44926561047694
 21
238.88170671689801
  0
LINE
  8
_0-0_0
  6
CONTINUOUS
 62
    7
 10
119.24050723051494
 20
238.2787701010829
 11
119.24050723051494
 21
238.3653740390053
  0
LINE
  8
_0-0_0
  6
CONTINUOUS
 62
    7
 10
118.67483505198874
 20
237.99592163982879
 11
118.67483505198874
 21
238.08252557775097
  0
LINE
  8
_0-0_0
  6
CONTINUOUS
 62
    7
 10
119.24050723051494
 20
238.3653740390053
 11
118.67483505198874
 21
238.08252557775097
  0
LINE
  8
_0-0_0
  6
CONTINUOUS
 62
    7
 10
104.74483907700984
 20
229.33387000078739
 11
104.74483907700984
 21
229.42047393870968
  0
LINE
  8
_0-0_0
  6
CONTINUOUS
 62
    7
 10
115.26481736828944
 20
234.68047545634047
 11
104.74483907700984
 21
229.42047393870968
  0
LINE
  8
_0-0_0
  6
CONTINUOUS
 62
    7
 10
104.74483907700984
 20
229.42047393870968
 11
100.58879032806564
 21
231.49847356919958
  0
LINE
  8
_0-0_0
  6
CONTINUOUS
 62
    7
 10
98.027318028129017
 20
227.67216312789878
 11
98.027318028129017
 21
227.75876706582119
  0
LINE
  8
_0-0_0
  6
CONTINUOUS
 62
    7
 10
97.461621105620509
 20
227.38931466664468
 11
97.461621105620509
 21
227.47591860456689
  0
LINE
  8
_0-0_0
  6
CONTINUOUS
 62
    7
 10
98.027318028129017
 20
227.75876706582119
 11
97.461621105620509
 21
227.47591860456689
  0
LINE
  8
_0-0_0
  6
CONTINUOUS
 62
    7
 10
82.612386189552097
 20
225.80547710593939
 11
82.612386189552097
 21
226.10859088866738
  0
LINE
  8
_0-0_0
  6
CONTINUOUS
 62
    7
 10
80.703190006063949
 20
224.7642750762729
 11
82.541667888242969
 21
225.68351401736248
  0
LINE
  8
_0-0_0
  6
CONTINUOUS
 62
    7
 10
80.703190006063949
 20
224.8508790141953
 11
80.703190006063949
 21
224.7642750762729
  0
LINE
  8
_0-0_0
  6
CONTINUOUS
 62
    7
 10
82.506308737588427
 20
225.75242600796639
 11
80.703190006063949
 21
224.8508790141953
  0
LINE
  8
_0-0_0
  6
CONTINUOUS
 62
    7
 10
82.541667888242969
 20
226.116533706974
 11
82.541667888242969
 21
225.81341992424598
  0
LINE
  8
_0-0_0
  6
CONTINUOUS
 62
    7
 10
94.067513802516643
 20
219.92059106022569
 11
82.541667888242969
 21
225.68351401736248
  0
LINE
  8
_0-0_0
  6
CONTINUOUS
 62
    7
 10
82.612386189552097
 20
225.80547710593939
 11
94.138232103825743
 21
220.04255414880248
  0
LINE
  8
_0-0_0
  6
CONTINUOUS
 62
    7
 10
94.138232103825743
 20
220.34566793153058
 11
82.612386189552097
 21
226.10859088866738
  0
LINE
  8
_0-0_0
  6
CONTINUOUS
 62
    7
 10
94.138232103825743
 20
220.04255414880248
 11
94.138232103825743
 21
220.34566793153058
  0
LINE
  8
_0-0_0
  6
CONTINUOUS
 62
    7
 10
91.8047756004474
 20
219.00135211913619
 11
92.229035920337594
 21
219.00135211913619
  0
LINE
  8
_0-0_0
  6
CONTINUOUS
 62
    7
 10
91.8047756004474
 20
219.00135211913619
 11
80.703190006063949
 21
224.55214491632788
  0
LINE
  8
_0-0_0
  6
CONTINUOUS
 62
    7
 10
80.703190006063949
 20
224.7642750762729
 11
80.703190006063949
 21
224.55214491632788
  0
LINE
  8
_0-0_0
  6
CONTINUOUS
 62
    7
 10
92.229035920337594
 20
219.00135211913619
 11
94.067513802516643
 21
219.92059106022569
  0
LINE
  8
_0-0_0
  6
CONTINUOUS
 62
    7
 10
91.937353857415303
 20
225.1380576723457
 11
91.888781420232021
 21
225.17430760636168
  0
LINE
  8
_0-0_0
  6
CONTINUOUS
 62
    7
 10
90.072375170232021
 20
223.21399035551698
 11
90.178427878213427
 21
223.29086990840977
  0
LINE
  8
_0-0_0
  6
CONTINUOUS
 62
    7
 10
89.648090106359547
 20
223.42612051546217
 11
90.072375170232021
 21
223.21399035551698
  0
LINE
  8
_0-0_0
  6
CONTINUOUS
 62
    7
 10
89.542037398378156
 20
223.6090527763364
 11
89.648090106359547
 21
223.42612051546217
  0
LINE
  8
_0-0_0
  6
CONTINUOUS
 62
    7
 10
89.542037398378156
 20
223.6090527763364
 11
89.542037398378156
 21
224.17197837283118
  0
LINE
  8
_0-0_0
  6
CONTINUOUS
 62
    7
 10
90.178427878213427
 20
223.85379550490478
 11
89.542037398378156
 21
224.17197837283118
  0
LINE
  8
_0-0_0
  6
CONTINUOUS
 62
    7
 10
90.178427878213427
 20
223.29086990840977
 11
90.178427878213427
 21
223.85379550490478
  0
LINE
  8
_0-0_0
  6
CONTINUOUS
 62
    7
 10
89.471319097069028
 20
223.57371836966408
 11
89.542037398378156
 21
223.6090527763364
  0
LINE
  8
_0-0_0
  6
CONTINUOUS
 62
    7
 10
89.648090106359547
 20
223.42612051546217
 11
89.577396549032699
 21
223.39076136480767
  0
LINE
  8
_0-0_0
  6
CONTINUOUS
 62
    7
 10
89.577396549032699
 20
223.39076136480767
 11
89.471319097069028
 21
223.57371836966408
  0
LINE
  8
_0-0_0
  6
CONTINUOUS
 62
    7
 10
89.471319097069028
 20
224.13661922217668
 11
89.471319097069028
 21
224.223223160099
  0
LINE
  8
_0-0_0
  6
CONTINUOUS
 62
    7
 10
89.471319097069028
 20
223.57371836966408
 11
89.471319097069028
 21
224.09331725321559
  0
LINE
  8
_0-0_0
  6
CONTINUOUS
 62
    7
 10
90.001656868922893
 20
223.17863120486248
 11
90.072375170232021
 21
223.21399035551698
  0
LINE
  8
_0-0_0
  6
CONTINUOUS
 62
    7
 10
90.001656868922893
 20
223.17863120486248
 11
89.577396549032699
 21
223.39076136480767
  0
LINE
  8
_0-0_0
  6
CONTINUOUS
 62
    7
 10
89.471319097069028
 20
224.223223160099
 11
89.275074573737086
 21
224.32135779375608
  0
LINE
  8
_0-0_0
  6
CONTINUOUS
 62
    7
 10
90.390558038158545
 20
223.76360368955417
 11
90.390558038158545
 21
223.676999751632
  0
LINE
  8
_0-0_0
  6
CONTINUOUS
 62
    7
 10
91.2939113426349
 20
224.21528034179238
 11
90.390558038158545
 21
223.76360368955417
  0
LINE
  8
_0-0_0
  6
CONTINUOUS
 62
    7
 10
90.390558038158545
 20
223.76360368955417
 11
90.176992727242165
 21
223.87039871700358
  0
LINE
  8
_0-0_0
  6
CONTINUOUS
 62
    7
 10
124.39027430716195
 20
228.67417068965977
 11
123.91954478858084
 21
227.86232063159397
  0
LINE
  8
_0-0_0
  6
CONTINUOUS
 62
    7
 10
123.28315430874554
 20
228.67417068965977
 11
123.75385908334434
 21
227.86232063159397
  0
LINE
  8
_0-0_0
  6
CONTINUOUS
 62
    7
 10
123.20031145612724
 20
228.96053279639548
 11
123.20031145612724
 21
229.8129877293558
  0
LINE
  8
_0-0_0
  6
CONTINUOUS
 62
    7
 10
124.47311715978014
 20
228.96053279639548
 11
124.47311715978014
 21
229.8129877293558
  0
LINE
  8
_0-0_0
  6
CONTINUOUS
 62
    7
 10
123.75385908334434
 20
227.86232063159397
 11
122.16287051176494
 21
227.06682634580429
  0
LINE
  8
_0-0_0
  6
CONTINUOUS
 62
    7
 10
121.69216573716614
 20
227.87867640387009
 11
122.16287051176494
 21
227.06682634580429
  0
LINE
  8
_0-0_0
  6
CONTINUOUS
 62
    7
 10
121.69216573716614
 20
227.87867640387009
 11
123.28315430874554
 21
228.67417068965977
  0
LINE
  8
_0-0_0
  6
CONTINUOUS
 62
    7
 10
125.51053336016024
 20
227.06682634580429
 11
123.91954478858084
 21
227.86232063159397
  0
LINE
  8
_0-0_0
  6
CONTINUOUS
 62
    7
 10
124.39027430716195
 20
228.67417068965977
 11
125.98126287874133
 21
227.87867640387009
  0
LINE
  8
_0-0_0
  6
CONTINUOUS
 62
    7
 10
125.51053336016024
 20
227.06682634580429
 11
125.98126287874133
 21
227.87867640387009
  0
LINE
  8
_0-0_0
  6
CONTINUOUS
 62
    7
 10
123.20031145612724
 20
228.96053279639548
 11
121.60932288454794
 21
228.1650385106058
  0
LINE
  8
_0-0_0
  6
CONTINUOUS
 62
    7
 10
126.06410573135955
 20
228.1650385106058
 11
124.47311715978014
 21
228.96053279639548
  0
LINE
  8
_0-0_0
  6
CONTINUOUS
 62
    7
 10
122.36287612040094
 20
226.86536084221478
 11
123.83670193596254
 21
227.60226137800439
  0
LINE
  8
_0-0_0
  6
CONTINUOUS
 62
    7
 10
123.83670193596254
 20
227.60226137800439
 11
125.31055249550654
 21
226.86536084221478
  0
LINE
  8
_0-0_0
  6
CONTINUOUS
 62
    7
 10
126.06410573135955
 20
228.1650385106058
 11
126.06410573135955
 21
229.01749344356608
  0
LINE
  8
_0-0_0
  6
CONTINUOUS
 62
    7
 10
126.06410573135955
 20
229.01749344356608
 11
124.47311715978014
 21
229.8129877293558
  0
LINE
  8
_0-0_0
  6
CONTINUOUS
 62
    7
 10
121.60932288454794
 20
228.1650385106058
 11
121.60932288454794
 21
229.01749344356608
  0
LINE
  8
_0-0_0
  6
CONTINUOUS
 62
    7
 10
123.20031145612724
 20
229.8129877293558
 11
121.60932288454794
 21
229.01749344356608
  0
LINE
  8
_0-0_0
  6
CONTINUOUS
 62
    7
 10
123.94277938792624
 20
226.18146191643348
 11
125.31055249550654
 21
226.86536084221478
  0
LINE
  8
_0-0_0
  6
CONTINUOUS
 62
    7
 10
123.94277938792624
 20
226.18146191643348
 11
123.90742023727174
 21
226.19915386375189
  0
LINE
  8
_0-0_0
  6
CONTINUOUS
 62
    7
 10
123.76600837863575
 20
226.19915386375189
 11
123.73064922798115
 21
226.18146191643348
  0
LINE
  8
_0-0_0
  6
CONTINUOUS
 62
    7
 10
122.36287612040094
 20
226.86536084221478
 11
123.73064922798115
 21
226.18146191643348
  0
LINE
  8
_0-0_0
  6
CONTINUOUS
 62
    7
 10
123.38670787451834
 20
227.28543942910238
 11
123.38693057035874
 21
227.29249146404749
  0
LINE
  8
_0-0_0
  6
CONTINUOUS
 62
    7
 10
93.490731575954172
 20
201.20847409707119
 11
92.016905760392476
 21
200.47154881729918
  0
LINE
  8
_0-0_0
  6
CONTINUOUS
 62
    7
 10
92.016905760392476
 20
200.47154881729918
 11
90.543079944830836
 21
201.20847409707119
  0
LINE
  8
_0-0_0
  6
CONTINUOUS
 62
    7
 10
91.910828308428805
 20
201.89234827887009
 11
90.543079944830836
 21
201.20847409707119
  0
LINE
  8
_0-0_0
  6
CONTINUOUS
 62
    7
 10
91.910828308428805
 20
201.89234827887009
 11
91.946187459083347
 21
201.874681075534
  0
LINE
  8
_0-0_0
  6
CONTINUOUS
 62
    7
 10
92.087624061701604
 20
201.874681075534
 11
92.122983212356161
 21
201.89234827887009
  0
LINE
  8
_0-0_0
  6
CONTINUOUS
 62
    7
 10
93.490731575954172
 20
201.20847409707119
 11
92.122983212356161
 21
201.89234827887009
  0
LINE
  8
_0-0_0
  6
CONTINUOUS
 62
    7
 10
91.946187459083347
 20
202.00458698241738
 11
91.946187459083347
 21
201.874681075534
  0
LINE
  8
_0-0_0
  6
CONTINUOUS
 62
    7
 10
92.087624061701604
 20
201.874681075534
 11
92.087624061701604
 21
202.00458698241738
  0
LINE
  8
_0-0_0
  6
CONTINUOUS
 62
    7
 10
91.910828308428805
 20
201.89234827887009
 11
91.910828308428805
 21
202.02225418575358
  0
LINE
  8
_0-0_0
  6
CONTINUOUS
 62
    7
 10
90.343074336194874
 20
201.20993399202467
 11
90.314618756591827
 21
201.2305457292502
  0
LINE
  8
_0-0_0
  6
CONTINUOUS
 62
    7
 10
91.910828308428805
 20
202.02225418575358
 11
91.908947765776773
 21
202.02131391442759
  0
LINE
  8
_0-0_0
  6
CONTINUOUS
 62
    7
 10
93.719192764193167
 20
201.2305457292502
 11
93.690737184590105
 21
201.20993399202467
  0
LINE
  8
_0-0_0
  6
CONTINUOUS
 62
    7
 10
92.122983212356161
 20
201.89234827887009
 11
92.122983212356161
 21
202.02225418575358
  0
LINE
  8
_0-0_0
  6
CONTINUOUS
 62
    7
 10
92.124863755008192
 20
202.02131391442759
 11
92.122983212356161
 21
202.02225418575358
  0
LINE
  8
_0-0_0
  6
CONTINUOUS
 62
    7
 10
91.910828308428805
 20
202.02225418575358
 11
91.946187459083347
 21
202.00458698241738
  0
LINE
  8
_0-0_0
  6
CONTINUOUS
 62
    7
 10
92.087624061701604
 20
202.00458698241738
 11
92.122983212356161
 21
202.02225418575358
  0
LINE
  8
_0-0_0
  6
CONTINUOUS
 62
    7
 10
92.466899821836734
 20
200.87499944810568
 11
92.466677125996384
 21
200.86794741316069
  0
LINE
  8
_0-0_0
  6
CONTINUOUS
 62
    7
 10
134.33725620116525
 20
224.02846327570288
 11
134.33725620116525
 21
224.88091820866319
  0
LINE
  8
_0-0_0
  6
CONTINUOUS
 62
    7
 10
133.78368382996595
 20
222.93025111090128
 11
134.25441334854705
 21
223.74210116896728
  0
LINE
  8
_0-0_0
  6
CONTINUOUS
 62
    7
 10
132.21592985773194
 20
222.04488668153058
 11
133.58370296531223
 21
222.72878560731189
  0
LINE
  8
_0-0_0
  6
CONTINUOUS
 62
    7
 10
132.21592985773194
 20
222.04488668153058
 11
132.21592985773194
 21
222.06265286079579
  0
LINE
  8
_0-0_0
  6
CONTINUOUS
 62
    7
 10
134.33535091453095
 20
224.87995319335488
 11
134.33725620116525
 21
224.88091820866319
  0
LINE
  8
_0-0_0
  6
CONTINUOUS
 62
    7
 10
135.84540192012645
 20
222.94660688317748
 11
134.25441334854705
 21
223.74210116896728
  0
LINE
  8
_0-0_0
  6
CONTINUOUS
 62
    7
 10
135.84540192012645
 20
222.94660688317748
 11
135.37467240154535
 21
222.13475682511168
  0
LINE
  8
_0-0_0
  6
CONTINUOUS
 62
    7
 10
133.78368382996595
 20
222.93025111090128
 11
135.37467240154535
 21
222.13475682511168
  0
LINE
  8
_0-0_0
  6
CONTINUOUS
 62
    7
 10
134.33725620116525
 20
224.02846327570288
 11
135.92824477274473
 21
223.23296898991319
  0
LINE
  8
_0-0_0
  6
CONTINUOUS
 62
    7
 10
135.05752878087395
 20
221.99186032753988
 11
133.58370296531223
 21
222.72878560731189
  0
LINE
  8
_0-0_0
  6
CONTINUOUS
 62
    7
 10
134.33725620116525
 20
224.88091820866319
 11
135.92824477274473
 21
224.08542392287347
  0
LINE
  8
_0-0_0
  6
CONTINUOUS
 62
    7
 10
135.92824477274473
 20
223.23296898991319
 11
135.92824477274473
 21
224.08542392287347
  0
LINE
  8
_0-0_0
  6
CONTINUOUS
 62
    7
 10
132.25128900838655
 20
221.9565011768853
 11
132.21592985773194
 21
221.93883397354918
  0
LINE
  8
_0-0_0
  6
CONTINUOUS
 62
    7
 10
132.21592985773194
 20
222.04488668153058
 11
132.25128900838655
 21
222.02721947819438
  0
LINE
  8
_0-0_0
  6
CONTINUOUS
 62
    7
 10
133.58370296531223
 20
221.2549597917502
 11
135.05752878087395
 21
221.99186032753988
  0
LINE
  8
_0-0_0
  6
CONTINUOUS
 62
    7
 10
133.58370296531223
 20
221.2549597917502
 11
132.21592985773194
 21
221.93883397354918
  0
LINE
  8
_0-0_0
  6
CONTINUOUS
 62
    7
 10
134.78725026260955
 20
222.03516229650108
 11
134.78712654269825
 21
222.04063071658118
  0
LINE
  8
_0-0_0
  6
CONTINUOUS
 62
    7
 10
132.21592985773194
 20
221.93883397354918
 11
132.21592985773194
 21
222.04488668153058
  0
LINE
  8
_0-0_0
  6
CONTINUOUS
 62
    7
 10
83.637702582605328
 20
206.13500096573659
 11
83.637702582605328
 21
206.15276714500189
  0
LINE
  8
_0-0_0
  6
CONTINUOUS
 62
    7
 10
82.269929475025094
 20
206.81887514753569
 11
83.637702582605328
 21
206.13500096573659
  0
LINE
  8
_0-0_0
  6
CONTINUOUS
 62
    7
 10
81.599219091790303
 20
207.83219070919108
 11
82.069923866389132
 21
207.0203406511252
  0
LINE
  8
_0-0_0
  6
CONTINUOUS
 62
    7
 10
81.516376239172075
 20
208.11857755990889
 11
81.516376239172075
 21
208.97100774888708
  0
LINE
  8
_0-0_0
  6
CONTINUOUS
 62
    7
 10
81.599219091790303
 20
207.83219070919108
 11
80.008230520210873
 21
207.03669642340128
  0
LINE
  8
_0-0_0
  6
CONTINUOUS
 62
    7
 10
80.47893529480973
 20
206.22484636533548
 11
82.069923866389132
 21
207.0203406511252
  0
LINE
  8
_0-0_0
  6
CONTINUOUS
 62
    7
 10
80.008230520210873
 20
207.03669642340128
 11
80.47893529480973
 21
206.22484636533548
  0
LINE
  8
_0-0_0
  6
CONTINUOUS
 62
    7
 10
79.925387667592645
 20
207.32308327411928
 11
81.516376239172075
 21
208.11857755990889
  0
LINE
  8
_0-0_0
  6
CONTINUOUS
 62
    7
 10
82.269929475025094
 20
206.81887514753569
 11
80.796103659463427
 21
206.08197461174598
  0
LINE
  8
_0-0_0
  6
CONTINUOUS
 62
    7
 10
79.925387667592645
 20
208.17551346309719
 11
81.516376239172075
 21
208.97100774888708
  0
LINE
  8
_0-0_0
  6
CONTINUOUS
 62
    7
 10
79.925387667592645
 20
207.32308327411928
 11
79.925387667592645
 21
208.17551346309719
  0
LINE
  8
_0-0_0
  6
CONTINUOUS
 62
    7
 10
83.602343431950786
 20
206.1173090184183
 11
83.637702582605328
 21
206.13500096573659
  0
LINE
  8
_0-0_0
  6
CONTINUOUS
 62
    7
 10
83.637702582605328
 20
206.0289235137729
 11
83.602343431950786
 21
206.04661546109139
  0
LINE
  8
_0-0_0
  6
CONTINUOUS
 62
    7
 10
83.637702582605328
 20
206.0289235137729
 11
82.269929475025094
 21
205.345049331974
  0
LINE
  8
_0-0_0
  6
CONTINUOUS
 62
    7
 10
80.796103659463427
 20
206.08197461174598
 11
82.269929475025094
 21
205.345049331974
  0
LINE
  8
_0-0_0
  6
CONTINUOUS
 62
    7
 10
81.066382177727803
 20
206.12525183672489
 11
81.066505897639104
 21
206.11980816062689
  0
LINE
  8
_0-0_0
  6
CONTINUOUS
 62
    7
 10
83.637702582605328
 20
206.0289235137729
 11
83.637702582605328
 21
206.13500096573659
  0
LINE
  8
_0-0_0
  6
CONTINUOUS
 62
    7
 10
126.06410573135955
 20
229.00883304977378
 11
126.06410573135955
 21
228.17369890439798
  0
LINE
  8
_0-0_0
  6
CONTINUOUS
 62
    7
 10
134.25441334854705
 20
223.75076156275949
 11
133.78368382996595
 21
222.93891150469358
  0
LINE
  8
_0-0_0
  6
CONTINUOUS
 62
    7
 10
126.06410573135955
 20
228.17369890439798
 11
134.33725620116525
 21
224.03712366949517
  0
LINE
  8
_0-0_0
  6
CONTINUOUS
 62
    7
 10
134.33725620116525
 20
224.87225781487098
 11
126.06410573135955
 21
229.00883304977378
  0
LINE
  8
_0-0_0
  6
CONTINUOUS
 62
    7
 10
134.33725620116525
 20
224.87225781487098
 11
134.33725620116525
 21
224.03712366949517
  0
LINE
  8
_0-0_0
  6
CONTINUOUS
 62
    7
 10
133.58370296531223
 20
222.73744600110408
 11
132.23005867160455
 21
222.0606238542502
  0
LINE
  8
_0-0_0
  6
CONTINUOUS
 62
    7
 10
83.637702582605328
 20
206.05490469514967
 11
83.637702582605328
 21
206.13500096573659
  0
LINE
  8
_0-0_0
  6
CONTINUOUS
 62
    7
 10
83.637702582605328
 20
206.05490469514967
 11
91.910828308428805
 21
201.91832946024678
  0
LINE
  8
_0-0_0
  6
CONTINUOUS
 62
    7
 10
91.910828308428805
 20
202.01359379196128
 11
83.637702582605328
 21
206.15016902686418
  0
LINE
  8
_0-0_0
  6
CONTINUOUS
 62
    7
 10
91.910828308428805
 20
201.91832946024678
 11
91.910828308428805
 21
202.01359379196128
  0
LINE
  8
_0-0_0
  6
CONTINUOUS
 62
    7
 10
90.543079944830836
 20
201.2171344908634
 11
91.896699494556344
 21
201.89393189373499
  0
LINE
  8
_0-0_0
  6
CONTINUOUS
 62
    7
 10
121.60932288454794
 20
229.00883304977378
 11
121.60932288454794
 21
228.17369890439798
  0
LINE
  8
_0-0_0
  6
CONTINUOUS
 62
    7
 10
82.069923866389132
 20
207.02900104491738
 11
81.599219091790303
 21
207.84085110298329
  0
LINE
  8
_0-0_0
  6
CONTINUOUS
 62
    7
 10
81.516376239172075
 20
208.12723795370118
 11
121.60932288454794
 21
228.17369890439798
  0
LINE
  8
_0-0_0
  6
CONTINUOUS
 62
    7
 10
121.60932288454794
 20
229.00883304977378
 11
81.516376239172075
 21
208.96234735509478
  0
LINE
  8
_0-0_0
  6
CONTINUOUS
 62
    7
 10
82.269929475025094
 20
206.82753554132788
 11
83.623549024750616
 21
206.15073813845618
  0
LINE
  8
_0-0_0
  6
CONTINUOUS
 62
    7
 10
132.21592985773194
 20
221.9648151549259
 11
132.21592985773194
 21
222.04488668153058
  0
LINE
  8
_0-0_0
  6
CONTINUOUS
 62
    7
 10
92.122983212356161
 20
201.91832946024678
 11
132.21592985773194
 21
221.9648151549259
  0
LINE
  8
_0-0_0
  6
CONTINUOUS
 62
    7
 10
132.21592985773194
 20
222.06007948664038
 11
92.122983212356161
 21
202.01359379196128
  0
LINE
  8
_0-0_0
  6
CONTINUOUS
 62
    7
 10
92.122983212356161
 20
201.91832946024678
 11
92.122983212356161
 21
202.01359379196128
  0
LINE
  8
_0-0_0
  6
CONTINUOUS
 62
    7
 10
93.490731575954172
 20
201.2171344908634
 11
92.13711202622865
 21
201.89393189373499
  0
LINE
  8
_0-0_0
  6
CONTINUOUS
 62
    7
 10
121.78609389383844
 20
245.43562055505248
 11
121.82939586279954
 21
245.41396957057196
  0
LINE
  8
_0-0_0
  6
CONTINUOUS
 62
    7
 10
122.13250964552763
 20
245.56552646193597
 11
121.78609389383844
 21
245.73873433778061
  0
LINE
  8
_0-0_0
  6
CONTINUOUS
 62
    7
 10
121.71468276102594
 20
245.6683871962054
 11
121.68004118585704
 21
245.68570798378988
  0
LINE
  8
_0-0_0
  6
CONTINUOUS
 62
    7
 10
121.04365070602174
 20
245.33214122122661
 11
121.00900913085275
 21
245.31482043364207
  0
LINE
  8
_0-0_0
  6
CONTINUOUS
 62
    7
 10
89.470601521583347
 20
224.10163123125608
 11
89.435959946414485
 21
224.11895201884059
  0
LINE
  8
_0-0_0
  6
CONTINUOUS
 62
    7
 10
132.25128900838655
 20
221.9565011768853
 11
132.25128900838655
 21
222.02721947819438
  0
LINE
  8
_0-0_0
  6
CONTINUOUS
 62
    7
 10
83.602343431950786
 20
206.1173090184183
 11
83.602343431950786
 21
206.04661546109139
  0
LINE
  8
_0-0_0
  6
CONTINUOUS
 62
    7
 10
125.51444290935784
 20
227.07353196499758
 11
133.78368382996595
 21
222.93891150469358
  0
LINE
  8
_0-0_0
  6
CONTINUOUS
 62
    7
 10
134.25441334854705
 20
223.75076156275949
 11
125.98509819599214
 21
227.88540676704579
  0
LINE
  8
_0-0_0
  6
CONTINUOUS
 62
    7
 10
133.58370296531223
 20
222.73744600110408
 11
125.31903968142294
 21
226.86976527105767
  0
LINE
  8
_0-0_0
  6
CONTINUOUS
 62
    7
 10
123.96556859559094
 20
226.19286889225688
 11
132.23005867160455
 21
222.0606238542502
  0
LINE
  8
_0-0_0
  6
CONTINUOUS
 62
    7
 10
91.896699494556344
 20
201.89393189373499
 11
83.632209418542828
 21
206.02617693174167
  0
LINE
  8
_0-0_0
  6
CONTINUOUS
 62
    7
 10
82.278589868817321
 20
205.34937952887009
 11
90.543079944830836
 21
201.2171344908634
  0
LINE
  8
_0-0_0
  6
CONTINUOUS
 62
    7
 10
82.069923866389132
 20
207.02900104491738
 11
122.15898570654954
 21
227.07353196499758
  0
LINE
  8
_0-0_0
  6
CONTINUOUS
 62
    7
 10
121.68830567593304
 20
227.88540676704579
 11
81.599219091790303
 21
207.84085110298329
  0
LINE
  8
_0-0_0
  6
CONTINUOUS
 62
    7
 10
122.35436419050224
 20
226.86976527105767
 11
82.269929475025094
 21
206.82753554132788
  0
LINE
  8
_0-0_0
  6
CONTINUOUS
 62
    7
 10
83.623549024750616
 20
206.15073813845618
 11
123.70783527633424
 21
226.19286889225688
  0
LINE
  8
_0-0_0
  6
CONTINUOUS
 62
    7
 10
132.22139827781223
 20
221.93608739151799
 11
92.13711202622865
 21
201.89393189373499
  0
LINE
  8
_0-0_0
  6
CONTINUOUS
 62
    7
 10
93.490731575954172
 20
201.2171344908634
 11
133.57504257152004
 21
221.25928998864629
  0
LINE
  8
_0-0_0
  6
CONTINUOUS
 62
    7
 10
86.983800374122424
 20
221.46275975479918
 11
81.778235617471239
 21
213.93155759316488
  0
LINE
  8
_0-0_0
  6
CONTINUOUS
 62
    7
 10
81.778235617471239
 20
213.93155759316488
 11
88.370422210191876
 21
217.44074915777639
  0
LINE
  8
_0-0_0
  6
CONTINUOUS
 62
    7
 10
88.370422210191876
 20
217.44074915777639
 11
81.534383672264283
 21
208.9795691667502
  0
LINE
  8
_0-0_0
  6
CONTINUOUS
 62
    7
 10
138.69864288692324
 20
207.51935254143339
 11
138.69864288692324
 21
207.57557086913619
  0
LINE
  8
_0-0_0
  6
CONTINUOUS
 62
    7
 10
138.01862876635744
 20
207.57557086913619
 11
138.01862876635744
 21
207.51912984559308
  0
LINE
  8
_0-0_0
  6
CONTINUOUS
 62
    7
 10
138.16412338206695
 20
208.77501066537769
 11
138.16412338206695
 21
207.71500320919108
  0
LINE
  8
_0-0_0
  6
CONTINUOUS
 62
    7
 10
138.55312352723155
 20
207.71500320919108
 11
138.55312352723155
 21
208.77501066537769
  0
LINE
  8
_0-0_0
  6
CONTINUOUS
 62
    7
 10
128.19808862172053
 20
212.76992660182199
 11
128.19808862172053
 21
212.82584800173748
  0
LINE
  8
_0-0_0
  6
CONTINUOUS
 62
    7
 10
127.51809924513694
 20
212.82584800173748
 11
127.51809924513694
 21
212.76955544208798
  0
LINE
  8
_0-0_0
  6
CONTINUOUS
 62
    7
 10
127.66359386084643
 20
214.02528779797899
 11
127.66359386084643
 21
212.96528034179238
  0
LINE
  8
_0-0_0
  6
CONTINUOUS
 62
    7
 10
128.05259400601113
 20
212.96528034179238
 11
128.05259400601113
 21
214.02528779797899
  0
LINE
  8
_0-0_0
  6
CONTINUOUS
 62
    7
 10
127.52646271114205
 20
212.86331039088449
 11
127.51809924513694
 21
212.82584800173748
  0
LINE
  8
_0-0_0
  6
CONTINUOUS
 62
    7
 10
127.66836944942324
 20
214.04671608661928
 11
127.66359386084643
 21
214.02528779797899
  0
LINE
  8
_0-0_0
  6
CONTINUOUS
 62
    7
 10
92.761526418648387
 20
187.11438840371179
 11
92.761526418648387
 21
187.17068096336118
  0
LINE
  8
_0-0_0
  6
CONTINUOUS
 62
    7
 10
92.081512298082515
 20
187.17068096336118
 11
92.081512298082515
 21
187.11400487198659
  0
LINE
  8
_0-0_0
  6
CONTINUOUS
 62
    7
 10
92.227006913791982
 20
188.37010838761168
 11
92.227006913791982
 21
187.31011330341619
  0
LINE
  8
_0-0_0
  6
CONTINUOUS
 62
    7
 10
92.616007058956683
 20
187.31011330341619
 11
92.616007058956683
 21
188.37010838761168
  0
LINE
  8
_0-0_0
  6
CONTINUOUS
 62
    7
 10
92.089875764087594
 20
187.15183842086759
 11
92.081512298082515
 21
187.11400487198659
  0
LINE
  8
_0-0_0
  6
CONTINUOUS
 62
    7
 10
81.932631880799988
 20
192.65096578309308
 11
81.932631880799988
 21
192.707109878849
  0
LINE
  8
_0-0_0
  6
CONTINUOUS
 62
    7
 10
81.252642504216396
 20
192.707109878849
 11
81.252642504216396
 21
192.65076783123499
  0
LINE
  8
_0-0_0
  6
CONTINUOUS
 62
    7
 10
81.398137119925849
 20
193.90654967509059
 11
81.398137119925849
 21
192.84654221890389
  0
LINE
  8
_0-0_0
  6
CONTINUOUS
 62
    7
 10
81.787137265090564
 20
192.84654221890389
 11
81.787137265090564
 21
193.90654967509059
  0
LINE
  8
_0-0_0
  6
CENTER2
 62
    7
 10
113.15419279718515
 20
149.00606997175439
 11
113.15419279718515
 21
122.91981327438319
  0
LINE
  8
_0-0_0
  6
CONTINUOUS
 62
    7
 10
82.437037959241735
 20
130.82069053103439
 11
82.437037959241735
 21
128.5706831078397
  0
LINE
  8
_0-0_0
  6
CONTINUOUS
 62
    7
 10
82.719880234500394
 20
130.82069053103439
 11
82.437037959241735
 21
130.82069053103439
  0
LINE
  8
_0-0_0
  6
CONTINUOUS
 62
    7
 10
82.719886420495925
 20
128.73636881307618
 11
82.719880234500394
 21
130.82069053103439
  0
LINE
  8
_0-0_0
  6
CONTINUOUS
 62
    7
 10
82.554200715259455
 20
128.45353272381308
 11
84.804195766463025
 21
128.45353272381308
  0
LINE
  8
_0-0_0
  6
CONTINUOUS
 62
    7
 10
84.804195766463025
 20
128.73636881307618
 11
82.719886420495925
 21
128.73636881307618
  0
LINE
  8
_0-0_0
  6
CONTINUOUS
 62
    7
 10
84.804195766463025
 20
128.45353272381308
 11
84.804195766463025
 21
128.73636881307618
  0
LINE
  8
_0-0_0
  6
CONTINUOUS
 62
    7
 10
84.654197745981605
 20
130.82069053103439
 11
82.719880234500394
 21
130.82069053103439
  0
LINE
  8
_0-0_0
  6
CONTINUOUS
 62
    7
 10
84.654197745981605
 20
130.82069053103439
 11
84.654197745981605
 21
130.77069531487089
  0
LINE
  8
_0-0_0
  6
CONTINUOUS
 62
    7
 10
84.754200550299586
 20
130.67069251055298
 11
84.804201952458584
 21
130.67069251055298
  0
LINE
  8
_0-0_0
  6
CONTINUOUS
 62
    7
 10
84.804195766463025
 20
128.73636881307618
 11
84.804201952458584
 21
130.67069251055298
  0
LINE
  8
_0-0_0
  6
CONTINUOUS
 62
    7
 10
81.771356790401995
 20
128.5706831078397
 11
82.437037959241735
 21
128.5706831078397
  0
LINE
  8
_0-0_0
  6
CONTINUOUS
 62
    7
 10
82.554200715259455
 20
127.7878453689778
 11
82.554200715259455
 21
128.45353272381308
  0
LINE
  8
_0-0_0
  6
CONTINUOUS
 62
    7
 10
84.804195766463025
 20
127.7878453689778
 11
82.554200715259455
 21
127.7878453689778
  0
LINE
  8
_0-0_0
  6
CONTINUOUS
 62
    7
 10
84.804195766463025
 20
127.7878453689778
 11
84.804195766463025
 21
128.45353272381308
  0
LINE
  8
_0-0_0
  6
CONTINUOUS
 62
    7
 10
81.771356790401995
 20
128.5706831078397
 11
81.771356790401995
 21
130.82069053103439
  0
LINE
  8
_0-0_0
  6
CONTINUOUS
 62
    7
 10
82.437037959241735
 20
130.82069053103439
 11
81.771356790401995
 21
130.82069053103439
  0
LINE
  8
_0-0_0
  6
CONTINUOUS
 62
    7
 10
82.554200715259455
 20
127.67069498495118
 11
82.554200715259455
 21
127.7878453689778
  0
LINE
  8
_0-0_0
  6
CONTINUOUS
 62
    7
 10
81.654200220379835
 20
128.5706831078397
 11
81.771356790401995
 21
128.5706831078397
  0
LINE
  8
_0-0_0
  6
CONTINUOUS
 62
    7
 10
81.654200220379835
 20
130.82069053103439
 11
81.654200220379835
 21
128.5706831078397
  0
LINE
  8
_0-0_0
  6
CONTINUOUS
 62
    7
 10
81.771356790401995
 20
130.82069053103439
 11
81.654200220379835
 21
130.82069053103439
  0
LINE
  8
_0-0_0
  6
CONTINUOUS
 62
    7
 10
82.554200715259455
 20
127.67069498495118
 11
84.804195766463025
 21
127.67069498495118
  0
LINE
  8
_0-0_0
  6
CONTINUOUS
 62
    7
 10
84.804195766463025
 20
127.67069498495118
 11
84.804195766463025
 21
127.7878453689778
  0
LINE
  8
_0-0_0
  6
CONTINUOUS
 62
    7
 10
143.87136000711973
 20
142.52068459247857
 11
143.87136000711973
 21
144.77069201567329
  0
LINE
  8
_0-0_0
  6
CONTINUOUS
 62
    7
 10
143.58851154586543
 20
142.52068459247857
 11
143.87136000711973
 21
142.52068459247857
  0
LINE
  8
_0-0_0
  6
CONTINUOUS
 62
    7
 10
143.58851154586543
 20
144.60500631043678
 11
143.58851154586543
 21
142.52068459247857
  0
LINE
  8
_0-0_0
  6
CONTINUOUS
 62
    7
 10
143.75419725110194
 20
144.88784239969988
 11
141.50420219989834
 21
144.88784239969988
  0
LINE
  8
_0-0_0
  6
CONTINUOUS
 62
    7
 10
141.50420219989834
 20
144.60500631043678
 11
143.58851154586543
 21
144.60500631043678
  0
LINE
  8
_0-0_0
  6
CONTINUOUS
 62
    7
 10
141.50420219989834
 20
144.88784239969988
 11
141.50420219989834
 21
144.60500631043678
  0
LINE
  8
_0-0_0
  6
CONTINUOUS
 62
    7
 10
141.65420022037983
 20
142.52068459247857
 11
143.58851154586543
 21
142.52068459247857
  0
LINE
  8
_0-0_0
  6
CONTINUOUS
 62
    7
 10
141.65420022037983
 20
142.52068459247857
 11
141.65420022037983
 21
142.57069218063319
  0
LINE
  8
_0-0_0
  6
CONTINUOUS
 62
    7
 10
141.55419741606184
 20
142.67069498495118
 11
141.50420219989834
 21
142.67069498495118
  0
LINE
  8
_0-0_0
  6
CONTINUOUS
 62
    7
 10
141.50420219989834
 20
144.60500631043678
 11
141.50420219989834
 21
142.67069498495118
  0
LINE
  8
_0-0_0
  6
CONTINUOUS
 62
    7
 10
144.53703498996384
 20
144.77069201567329
 11
143.87136000711973
 21
144.77069201567329
  0
LINE
  8
_0-0_0
  6
CONTINUOUS
 62
    7
 10
143.75419725110194
 20
145.55352975453519
 11
143.75419725110194
 21
144.88784239969988
  0
LINE
  8
_0-0_0
  6
CONTINUOUS
 62
    7
 10
141.50420219989834
 20
145.55352975453519
 11
143.75419725110194
 21
145.55352975453519
  0
LINE
  8
_0-0_0
  6
CONTINUOUS
 62
    7
 10
141.50420219989834
 20
145.55352975453519
 11
141.50420219989834
 21
144.88784239969988
  0
LINE
  8
_0-0_0
  6
CONTINUOUS
 62
    7
 10
144.53703498996384
 20
144.77069201567329
 11
144.53703498996384
 21
142.52068459247857
  0
LINE
  8
_0-0_0
  6
CONTINUOUS
 62
    7
 10
143.87136000711973
 20
142.52068459247857
 11
144.53703498996384
 21
142.52068459247857
  0
LINE
  8
_0-0_0
  6
CONTINUOUS
 62
    7
 10
143.75419725110194
 20
145.67069251055298
 11
143.75419725110194
 21
145.55352975453519
  0
LINE
  8
_0-0_0
  6
CONTINUOUS
 62
    7
 10
144.65419774598155
 20
144.77069201567329
 11
144.53703498996384
 21
144.77069201567329
  0
LINE
  8
_0-0_0
  6
CONTINUOUS
 62
    7
 10
144.65419774598155
 20
142.52068459247857
 11
144.65419774598155
 21
144.77069201567329
  0
LINE
  8
_0-0_0
  6
CONTINUOUS
 62
    7
 10
144.53703498996384
 20
142.52068459247857
 11
144.65419774598155
 21
142.52068459247857
  0
LINE
  8
_0-0_0
  6
CONTINUOUS
 62
    7
 10
143.75419725110194
 20
145.67069251055298
 11
141.50420219989834
 21
145.67069251055298
  0
LINE
  8
_0-0_0
  6
CONTINUOUS
 62
    7
 10
141.50420219989834
 20
145.67069251055298
 11
141.50420219989834
 21
145.55352975453519
  0
LINE
  8
_0-0_0
  6
CONTINUOUS
 62
    7
 10
82.719886420495925
 20
144.60500631043678
 11
82.719880234500394
 21
142.52068459247857
  0
LINE
  8
_0-0_0
  6
CONTINUOUS
 62
    7
 10
82.719880234500394
 20
142.52068459247857
 11
82.437037959241735
 21
142.52068459247857
  0
LINE
  8
_0-0_0
  6
CONTINUOUS
 62
    7
 10
82.437037959241735
 20
142.52068459247857
 11
82.437037959241735
 21
144.77069201567329
  0
LINE
  8
_0-0_0
  6
CONTINUOUS
 62
    7
 10
84.804195766463025
 20
144.60500631043678
 11
82.719886420495925
 21
144.60500631043678
  0
LINE
  8
_0-0_0
  6
CONTINUOUS
 62
    7
 10
82.554200715259455
 20
144.88784239969988
 11
84.804195766463025
 21
144.88784239969988
  0
LINE
  8
_0-0_0
  6
CONTINUOUS
 62
    7
 10
84.804195766463025
 20
144.88784239969988
 11
84.804195766463025
 21
144.60500631043678
  0
LINE
  8
_0-0_0
  6
CONTINUOUS
 62
    7
 10
84.754200550299586
 20
142.67069498495118
 11
84.804201952458584
 21
142.67069498495118
  0
LINE
  8
_0-0_0
  6
CONTINUOUS
 62
    7
 10
84.654197745981605
 20
142.52068459247857
 11
84.654197745981605
 21
142.57069218063319
  0
LINE
  8
_0-0_0
  6
CONTINUOUS
 62
    7
 10
84.654197745981605
 20
142.52068459247857
 11
82.719880234500394
 21
142.52068459247857
  0
LINE
  8
_0-0_0
  6
CONTINUOUS
 62
    7
 10
84.804195766463025
 20
144.60500631043678
 11
84.804201952458584
 21
142.67069498495118
  0
LINE
  8
_0-0_0
  6
CONTINUOUS
 62
    7
 10
81.771356790401995
 20
144.77069201567329
 11
82.437037959241735
 21
144.77069201567329
  0
LINE
  8
_0-0_0
  6
CONTINUOUS
 62
    7
 10
82.554200715259455
 20
145.55352975453519
 11
82.554200715259455
 21
144.88784239969988
  0
LINE
  8
_0-0_0
  6
CONTINUOUS
 62
    7
 10
84.804195766463025
 20
145.55352975453519
 11
82.554200715259455
 21
145.55352975453519
  0
LINE
  8
_0-0_0
  6
CONTINUOUS
 62
    7
 10
84.804195766463025
 20
145.55352975453519
 11
84.804195766463025
 21
144.88784239969988
  0
LINE
  8
_0-0_0
  6
CONTINUOUS
 62
    7
 10
81.771356790401995
 20
144.77069201567329
 11
81.771356790401995
 21
142.52068459247857
  0
LINE
  8
_0-0_0
  6
CONTINUOUS
 62
    7
 10
82.437037959241735
 20
142.52068459247857
 11
81.771356790401995
 21
142.52068459247857
  0
LINE
  8
_0-0_0
  6
CONTINUOUS
 62
    7
 10
82.554200715259455
 20
145.67069251055298
 11
82.554200715259455
 21
145.55352975453519
  0
LINE
  8
_0-0_0
  6
CONTINUOUS
 62
    7
 10
81.654200220379835
 20
144.77069201567329
 11
81.771356790401995
 21
144.77069201567329
  0
LINE
  8
_0-0_0
  6
CONTINUOUS
 62
    7
 10
81.654200220379835
 20
142.52068459247857
 11
81.654200220379835
 21
144.77069201567329
  0
LINE
  8
_0-0_0
  6
CONTINUOUS
 62
    7
 10
81.771356790401995
 20
142.52068459247857
 11
81.654200220379835
 21
142.52068459247857
  0
LINE
  8
_0-0_0
  6
CONTINUOUS
 62
    7
 10
82.554200715259455
 20
145.67069251055298
 11
84.804195766463025
 21
145.67069251055298
  0
LINE
  8
_0-0_0
  6
CONTINUOUS
 62
    7
 10
84.804195766463025
 20
145.67069251055298
 11
84.804195766463025
 21
145.55352975453519
  0
LINE
  8
_0-0_0
  6
CONTINUOUS
 62
    7
 10
143.58851154586543
 20
128.73636881307618
 11
143.58851154586543
 21
130.82069053103439
  0
LINE
  8
_0-0_0
  6
CONTINUOUS
 62
    7
 10
143.58851154586543
 20
130.82069053103439
 11
143.87136000711973
 21
130.82069053103439
  0
LINE
  8
_0-0_0
  6
CONTINUOUS
 62
    7
 10
143.87136000711973
 20
130.82069053103439
 11
143.87136000711973
 21
128.5706831078397
  0
LINE
  8
_0-0_0
  6
CONTINUOUS
 62
    7
 10
141.50420219989834
 20
128.73636881307618
 11
143.58851154586543
 21
128.73636881307618
  0
LINE
  8
_0-0_0
  6
CONTINUOUS
 62
    7
 10
143.75419725110194
 20
128.45353272381308
 11
141.50420219989834
 21
128.45353272381308
  0
LINE
  8
_0-0_0
  6
CONTINUOUS
 62
    7
 10
141.50420219989834
 20
128.45353272381308
 11
141.50420219989834
 21
128.73636881307618
  0
LINE
  8
_0-0_0
  6
CONTINUOUS
 62
    7
 10
141.55419741606184
 20
130.67069251055298
 11
141.50420219989834
 21
130.67069251055298
  0
LINE
  8
_0-0_0
  6
CONTINUOUS
 62
    7
 10
141.65420022037983
 20
130.82069053103439
 11
141.65420022037983
 21
130.77069531487089
  0
LINE
  8
_0-0_0
  6
CONTINUOUS
 62
    7
 10
141.65420022037983
 20
130.82069053103439
 11
143.58851154586543
 21
130.82069053103439
  0
LINE
  8
_0-0_0
  6
CONTINUOUS
 62
    7
 10
141.50420219989834
 20
128.73636881307618
 11
141.50420219989834
 21
130.67069251055298
  0
LINE
  8
_0-0_0
  6
CONTINUOUS
 62
    7
 10
144.53703498996384
 20
128.5706831078397
 11
143.87136000711973
 21
128.5706831078397
  0
LINE
  8
_0-0_0
  6
CONTINUOUS
 62
    7
 10
143.75419725110194
 20
127.7878453689778
 11
143.75419725110194
 21
128.45353272381308
  0
LINE
  8
_0-0_0
  6
CONTINUOUS
 62
    7
 10
141.50420219989834
 20
127.7878453689778
 11
143.75419725110194
 21
127.7878453689778
  0
LINE
  8
_0-0_0
  6
CONTINUOUS
 62
    7
 10
141.50420219989834
 20
127.7878453689778
 11
141.50420219989834
 21
128.45353272381308
  0
LINE
  8
_0-0_0
  6
CONTINUOUS
 62
    7
 10
144.53703498996384
 20
128.5706831078397
 11
144.53703498996384
 21
130.82069053103439
  0
LINE
  8
_0-0_0
  6
CONTINUOUS
 62
    7
 10
143.87136000711973
 20
130.82069053103439
 11
144.53703498996384
 21
130.82069053103439
  0
LINE
  8
_0-0_0
  6
CONTINUOUS
 62
    7
 10
143.75419725110194
 20
127.67069498495118
 11
143.75419725110194
 21
127.7878453689778
  0
LINE
  8
_0-0_0
  6
CONTINUOUS
 62
    7
 10
144.65419774598155
 20
128.5706831078397
 11
144.53703498996384
 21
128.5706831078397
  0
LINE
  8
_0-0_0
  6
CONTINUOUS
 62
    7
 10
144.65419774598155
 20
130.82069053103439
 11
144.65419774598155
 21
128.5706831078397
  0
LINE
  8
_0-0_0
  6
CONTINUOUS
 62
    7
 10
144.53703498996384
 20
130.82069053103439
 11
144.65419774598155
 21
130.82069053103439
  0
LINE
  8
_0-0_0
  6
CONTINUOUS
 62
    7
 10
143.75419725110194
 20
127.67069498495118
 11
141.50420219989834
 21
127.67069498495118
  0
LINE
  8
_0-0_0
  6
CONTINUOUS
 62
    7
 10
141.50420219989834
 20
127.67069498495118
 11
141.50420219989834
 21
127.7878453689778
  0
LINE
  8
_0-0_0
  6
CONTINUOUS
 62
    7
 10
143.58851154586543
 20
130.82069053103439
 11
143.58851154586543
 21
142.52068459247857
  0
LINE
  8
_0-0_0
  6
CONTINUOUS
 62
    7
 10
143.87136000711973
 20
142.52068459247857
 11
143.87136000711973
 21
130.82069053103439
  0
LINE
  8
_0-0_0
  6
CONTINUOUS
 62
    7
 10
141.67419335804874
 20
142.52068459247857
 11
141.67419335804874
 21
130.82069053103439
  0
LINE
  8
_0-0_0
  6
CONTINUOUS
 62
    7
 10
141.65420022037983
 20
130.82069053103439
 11
141.65420022037983
 21
142.52068459247857
  0
LINE
  8
_0-0_0
  6
CONTINUOUS
 62
    7
 10
144.53703498996384
 20
130.82069053103439
 11
144.53703498996384
 21
142.52068459247857
  0
LINE
  8
_0-0_0
  6
CONTINUOUS
 62
    7
 10
144.65419774598155
 20
142.52068459247857
 11
144.65419774598155
 21
130.82069053103439
  0
LINE
  8
_0-0_0
  6
CONTINUOUS
 62
    7
 10
82.719880234500394
 20
142.52068459247857
 11
82.719880234500394
 21
130.82069053103439
  0
LINE
  8
_0-0_0
  6
CONTINUOUS
 62
    7
 10
82.437037959241735
 20
130.82069053103439
 11
82.437037959241735
 21
142.52068459247857
  0
LINE
  8
_0-0_0
  6
CONTINUOUS
 62
    7
 10
84.634198422317112
 20
130.82069053103439
 11
84.634198422317112
 21
142.52068459247857
  0
LINE
  8
_0-0_0
  6
CONTINUOUS
 62
    7
 10
84.654197745981605
 20
142.52068459247857
 11
84.654197745981605
 21
130.82069053103439
  0
LINE
  8
_0-0_0
  6
CONTINUOUS
 62
    7
 10
81.771356790401995
 20
142.52068459247857
 11
81.771356790401995
 21
130.82069053103439
  0
LINE
  8
_0-0_0
  6
CONTINUOUS
 62
    7
 10
81.654200220379835
 20
130.82069053103439
 11
81.654200220379835
 21
142.52068459247857
  0
LINE
  8
_0-0_0
  6
CONTINUOUS
 62
    7
 10
84.804195766463025
 20
128.73636881307618
 11
141.50420219989834
 21
128.73636881307618
  0
LINE
  8
_0-0_0
  6
CONTINUOUS
 62
    7
 10
141.50420219989834
 20
128.45353272381308
 11
84.804195766463025
 21
128.45353272381308
  0
LINE
  8
_0-0_0
  6
CONTINUOUS
 62
    7
 10
141.50420219989834
 20
130.6506870008929
 11
84.804201952458584
 21
130.6506870008929
  0
LINE
  8
_0-0_0
  6
CONTINUOUS
 62
    7
 10
84.804201952458584
 20
130.67069251055298
 11
141.50420219989834
 21
130.67069251055298
  0
LINE
  8
_0-0_0
  6
CONTINUOUS
 62
    7
 10
84.804195766463025
 20
127.7878453689778
 11
141.50420219989834
 21
127.7878453689778
  0
LINE
  8
_0-0_0
  6
CONTINUOUS
 62
    7
 10
141.50420219989834
 20
127.67069498495118
 11
84.804195766463025
 21
127.67069498495118
  0
LINE
  8
_0-0_0
  6
CONTINUOUS
 62
    7
 10
141.50420219989834
 20
144.60500631043678
 11
84.804195766463025
 21
144.60500631043678
  0
LINE
  8
_0-0_0
  6
CONTINUOUS
 62
    7
 10
84.804195766463025
 20
144.88784239969988
 11
141.50420219989834
 21
144.88784239969988
  0
LINE
  8
_0-0_0
  6
CONTINUOUS
 62
    7
 10
84.804201952458584
 20
142.69068812262009
 11
141.50420219989834
 21
142.69068812262009
  0
LINE
  8
_0-0_0
  6
CONTINUOUS
 62
    7
 10
141.50420219989834
 20
142.67069498495118
 11
84.804201952458584
 21
142.67069498495118
  0
LINE
  8
_0-0_0
  6
CONTINUOUS
 62
    7
 10
141.50420219989834
 20
145.55352975453519
 11
84.804195766463025
 21
145.55352975453519
  0
LINE
  8
_0-0_0
  6
CONTINUOUS
 62
    7
 10
84.804195766463025
 20
145.67069251055298
 11
141.50420219989834
 21
145.67069251055298
  0
LINE
  8
_0-0_0
  6
CONTINUOUS
 62
    7
 10
141.65420022037983
 20
152.59852503668259
 11
144.65419774598155
 21
151.794679656879
  0
LINE
  8
_0-0_0
  6
CONTINUOUS
 62
    7
 10
144.65419774598155
 20
151.794679656879
 11
141.65420022037983
 21
150.99083427707529
  0
LINE
  8
_0-0_0
  6
CONTINUOUS
 62
    7
 10
144.65419774598155
 20
151.794679656879
 11
141.65420022037983
 21
151.794679656879
  0
LINE
  8
_0-0_0
  6
CONTINUOUS
 62
    7
 10
84.654197745981605
 20
150.99083427707529
 11
81.654200220379835
 21
151.794679656879
  0
LINE
  8
_0-0_0
  6
CONTINUOUS
 62
    7
 10
81.654200220379835
 20
151.794679656879
 11
84.654197745981605
 21
152.59852503668259
  0
LINE
  8
_0-0_0
  6
CONTINUOUS
 62
    7
 10
81.654200220379835
 20
151.794679656879
 11
84.654197745981605
 21
151.794679656879
  0
LINE
  8
_0-0_0
  6
CONTINUOUS
 62
    7
 10
144.65419774598155
 20
143.52068789167629
 11
144.65419774598155
 21
152.7946829560766
  0
LINE
  8
_0-0_0
  6
CONTINUOUS
 62
    7
 10
81.654200220379835
 20
143.52068789167629
 11
81.654200220379835
 21
152.7946829560766
  0
LINE
  8
_0-0_0
  6
CONTINUOUS
 62
    7
 10
144.65419774598155
 20
151.794679656879
 11
81.654200220379835
 21
151.794679656879
  0
LINE
  8
_0-0_0
  6
CONTINUOUS
 62
    7
 10
73.948899399539471
 20
148.6706900361547
 11
74.752744779343089
 21
145.67069251055298
  0
LINE
  8
_0-0_0
  6
CONTINUOUS
 62
    7
 10
74.752744779343089
 20
145.67069251055298
 11
75.556590159146708
 21
148.6706900361547
  0
LINE
  8
_0-0_0
  6
CONTINUOUS
 62
    7
 10
74.752744779343089
 20
145.67069251055298
 11
74.752744779343089
 21
148.6706900361547
  0
LINE
  8
_0-0_0
  6
CONTINUOUS
 62
    7
 10
75.556590159146708
 20
124.67068508735829
 11
74.752744779343089
 21
127.67069498495118
  0
LINE
  8
_0-0_0
  6
CONTINUOUS
 62
    7
 10
74.752744779343089
 20
127.67069498495118
 11
73.948899399539471
 21
124.67068508735829
  0
LINE
  8
_0-0_0
  6
CONTINUOUS
 62
    7
 10
74.752744779343089
 20
127.67069498495118
 11
74.752744779343089
 21
124.67068508735829
  0
LINE
  8
_0-0_0
  6
CONTINUOUS
 62
    7
 10
74.752744779343089
 20
145.67069251055298
 11
74.752744779343089
 21
151.67068756175649
  0
LINE
  8
_0-0_0
  6
CONTINUOUS
 62
    7
 10
74.752744779343089
 20
145.67069251055298
 11
74.752744779343089
 21
127.67069498495118
  0
LINE
  8
_0-0_0
  6
CONTINUOUS
 62
    7
 10
74.752744779343089
 20
127.67069498495118
 11
74.752744779343089
 21
121.67068756175649
  0
LINE
  8
_0-0_0
  6
CONTINUOUS
 62
    7
 10
83.804192467265395
 20
127.67069498495118
 11
73.75274148014546
 21
127.67069498495118
  0
LINE
  8
_0-0_0
  6
CONTINUOUS
 62
    7
 10
83.804192467265395
 20
145.67069251055298
 11
73.75274148014546
 21
145.67069251055298
  0
LINE
  8
_0-0_0
  6
CENTER2
 62
    7
 10
47.345252219033739
 20
136.67068756175649
 11
67.789299476740666
 21
136.67068756175649
  0
LINE
  8
_0-0_0
  6
CENTER2
 62
    7
 10
51.879416853944548
 20
136.67068756175649
 11
57.986890485107438
 21
136.67068756175649
  0
LINE
  8
_0-0_0
  6
CONTINUOUS
 62
    7
 10
54.665518117867151
 20
142.52068459247857
 11
54.665518117867151
 21
144.77069201567329
  0
LINE
  8
_0-0_0
  6
CONTINUOUS
 62
    7
 10
54.665518117867151
 20
144.77069201567329
 11
55.64983373230973
 21
144.77069201567329
  0
LINE
  8
_0-0_0
  6
CONTINUOUS
 62
    7
 10
54.665518117867151
 20
142.52068459247857
 11
55.64983373230973
 21
142.52068459247857
  0
LINE
  8
_0-0_0
  6
CONTINUOUS
 62
    7
 10
55.64983373230973
 20
142.52068459247857
 11
55.64983373230973
 21
144.77069201567329
  0
LINE
  8
_0-0_0
  6
CONTINUOUS
 62
    7
 10
54.665518117867151
 20
144.77069201567329
 11
54.665518117867151
 21
145.67069251055298
  0
LINE
  8
_0-0_0
  6
CONTINUOUS
 62
    7
 10
54.665518117867151
 20
145.67069251055298
 11
55.64983373230973
 21
145.67069251055298
  0
LINE
  8
_0-0_0
  6
CONTINUOUS
 62
    7
 10
55.64983373230973
 20
144.77069201567329
 11
55.64983373230973
 21
145.67069251055298
  0
LINE
  8
_0-0_0
  6
CONTINUOUS
 62
    7
 10
54.382675842608506
 20
144.77069201567329
 11
54.382675842608506
 21
142.52068459247857
  0
LINE
  8
_0-0_0
  6
CONTINUOUS
 62
    7
 10
54.665518117867151
 20
144.77069201567329
 11
54.382675842608506
 21
144.77069201567329
  0
LINE
  8
_0-0_0
  6
CONTINUOUS
 62
    7
 10
54.382675842608506
 20
142.52068459247857
 11
54.665518117867151
 21
142.52068459247857
  0
LINE
  8
_0-0_0
  6
CONTINUOUS
 62
    7
 10
54.382675842608506
 20
145.55352975453519
 11
54.382675842608506
 21
144.77069201567329
  0
LINE
  8
_0-0_0
  6
CONTINUOUS
 62
    7
 10
53.716994673768767
 20
142.52068459247857
 11
53.716994673768767
 21
144.77069201567329
  0
LINE
  8
_0-0_0
  6
CONTINUOUS
 62
    7
 10
54.382675842608506
 20
144.77069201567329
 11
53.716994673768767
 21
144.77069201567329
  0
LINE
  8
_0-0_0
  6
CONTINUOUS
 62
    7
 10
53.716994673768767
 20
142.52068459247857
 11
54.382675842608506
 21
142.52068459247857
  0
LINE
  8
_0-0_0
  6
CONTINUOUS
 62
    7
 10
54.382675842608506
 20
145.55352975453519
 11
53.716994673768767
 21
144.88784239969988
  0
LINE
  8
_0-0_0
  6
CONTINUOUS
 62
    7
 10
53.599838103746606
 20
144.60500631043678
 11
53.599838103746606
 21
142.52068459247857
  0
LINE
  8
_0-0_0
  6
CONTINUOUS
 62
    7
 10
53.599838103746606
 20
142.52068459247857
 11
53.716994673768767
 21
142.52068459247857
  0
LINE
  8
_0-0_0
  6
CONTINUOUS
 62
    7
 10
55.64983373230973
 20
130.82069053103439
 11
55.64983373230973
 21
128.5706831078397
  0
LINE
  8
_0-0_0
  6
CONTINUOUS
 62
    7
 10
54.665518117867151
 20
128.5706831078397
 11
55.64983373230973
 21
128.5706831078397
  0
LINE
  8
_0-0_0
  6
CONTINUOUS
 62
    7
 10
54.665518117867151
 20
130.82069053103439
 11
54.665518117867151
 21
128.5706831078397
  0
LINE
  8
_0-0_0
  6
CONTINUOUS
 62
    7
 10
54.665518117867151
 20
130.82069053103439
 11
55.64983373230973
 21
130.82069053103439
  0
LINE
  8
_0-0_0
  6
CONTINUOUS
 62
    7
 10
54.665518117867151
 20
127.67069498495118
 11
55.64983373230973
 21
127.67069498495118
  0
LINE
  8
_0-0_0
  6
CONTINUOUS
 62
    7
 10
54.665518117867151
 20
128.5706831078397
 11
54.665518117867151
 21
127.67069498495118
  0
LINE
  8
_0-0_0
  6
CONTINUOUS
 62
    7
 10
55.64983373230973
 20
128.5706831078397
 11
55.64983373230973
 21
127.67069498495118
  0
LINE
  8
_0-0_0
  6
CONTINUOUS
 62
    7
 10
54.665518117867151
 20
128.5706831078397
 11
54.382675842608506
 21
128.5706831078397
  0
LINE
  8
_0-0_0
  6
CONTINUOUS
 62
    7
 10
54.382675842608506
 20
128.5706831078397
 11
54.382675842608506
 21
130.82069053103439
  0
LINE
  8
_0-0_0
  6
CONTINUOUS
 62
    7
 10
54.382675842608506
 20
130.82069053103439
 11
54.665518117867151
 21
130.82069053103439
  0
LINE
  8
_0-0_0
  6
CONTINUOUS
 62
    7
 10
54.382675842608506
 20
127.7878453689778
 11
54.382675842608506
 21
128.5706831078397
  0
LINE
  8
_0-0_0
  6
CONTINUOUS
 62
    7
 10
54.382675842608506
 20
128.5706831078397
 11
53.716994673768767
 21
128.5706831078397
  0
LINE
  8
_0-0_0
  6
CONTINUOUS
 62
    7
 10
53.716994673768767
 20
130.82069053103439
 11
53.716994673768767
 21
128.5706831078397
  0
LINE
  8
_0-0_0
  6
CONTINUOUS
 62
    7
 10
53.716994673768767
 20
130.82069053103439
 11
54.382675842608506
 21
130.82069053103439
  0
LINE
  8
_0-0_0
  6
CONTINUOUS
 62
    7
 10
54.382675842608506
 20
127.7878453689778
 11
53.716994673768767
 21
128.45353272381308
  0
LINE
  8
_0-0_0
  6
CONTINUOUS
 62
    7
 10
53.599838103746606
 20
128.73636881307618
 11
53.599838103746606
 21
130.82069053103439
  0
LINE
  8
_0-0_0
  6
CONTINUOUS
 62
    7
 10
53.599838103746606
 20
130.82069053103439
 11
53.716994673768767
 21
130.82069053103439
  0
LINE
  8
_0-0_0
  6
CONTINUOUS
 62
    7
 10
55.639837163475249
 20
130.82069053103439
 11
55.639837163475249
 21
142.52068459247857
  0
LINE
  8
_0-0_0
  6
CONTINUOUS
 62
    7
 10
54.675520872697177
 20
142.52068459247857
 11
54.675520872697177
 21
130.82069053103439
  0
LINE
  8
_0-0_0
  6
CONTINUOUS
 62
    7
 10
55.639837163475249
 20
142.52068459247857
 11
54.675520872697177
 21
142.52068459247857
  0
LINE
  8
_0-0_0
  6
CONTINUOUS
 62
    7
 10
55.639837163475249
 20
130.82069053103439
 11
54.675520872697177
 21
130.82069053103439
  0
LINE
  8
_0-0_0
  6
CONTINUOUS
 62
    7
 10
55.659836487139756
 20
142.52068459247857
 11
55.659836487139756
 21
130.82069053103439
  0
LINE
  8
_0-0_0
  6
CONTINUOUS
 62
    7
 10
55.64983373230973
 20
142.52068459247857
 11
55.659836487139756
 21
142.52068459247857
  0
LINE
  8
_0-0_0
  6
CONTINUOUS
 62
    7
 10
55.659836487139756
 20
130.82069053103439
 11
55.64983373230973
 21
130.82069053103439
  0
LINE
  8
_0-0_0
  6
CONTINUOUS
 62
    7
 10
54.392678597438533
 20
130.82069053103439
 11
54.392678597438533
 21
142.52068459247857
  0
LINE
  8
_0-0_0
  6
CONTINUOUS
 62
    7
 10
53.726991242603219
 20
142.52068459247857
 11
53.726991242603219
 21
130.82069053103439
  0
LINE
  8
_0-0_0
  6
CONTINUOUS
 62
    7
 10
53.609834672581059
 20
130.82069053103439
 11
53.609834672581059
 21
142.52068459247857
  0
LINE
  8
_0-0_0
  6
CONTINUOUS
 62
    7
 10
55.659836487139756
 20
127.95068551625388
 11
55.659836487139756
 21
127.69068812262009
  0
LINE
  8
_0-0_0
  6
CONTINUOUS
 62
    7
 10
55.659836487139756
 20
145.39068960725899
 11
55.659836487139756
 21
145.6506870008929
  0
LINE
  8
_0-0_0
  6
CONTINUOUS
 62
    7
 10
50.599834392149262
 20
152.45249842535438
 11
53.599838103746606
 21
151.6486406735597
  0
LINE
  8
_0-0_0
  6
CONTINUOUS
 62
    7
 10
53.599838103746606
 20
151.6486406735597
 11
50.599834392149262
 21
150.84479529375608
  0
LINE
  8
_0-0_0
  6
CONTINUOUS
 62
    7
 10
53.599838103746606
 20
151.6486406735597
 11
50.599834392149262
 21
151.6486406735597
  0
LINE
  8
_0-0_0
  6
CONTINUOUS
 62
    7
 10
58.649837443907074
 20
150.84479529375608
 11
55.64983373230973
 21
151.6486406735597
  0
LINE
  8
_0-0_0
  6
CONTINUOUS
 62
    7
 10
55.64983373230973
 20
151.6486406735597
 11
58.649837443907074
 21
152.45249842535438
  0
LINE
  8
_0-0_0
  6
CONTINUOUS
 62
    7
 10
55.64983373230973
 20
151.6486406735597
 11
58.649837443907074
 21
151.6486406735597
  0
LINE
  8
_0-0_0
  6
CONTINUOUS
 62
    7
 10
53.599838103746606
 20
145.60500960963449
 11
53.599838103746606
 21
152.64864397275738
  0
LINE
  8
_0-0_0
  6
CONTINUOUS
 62
    7
 10
55.64983373230973
 20
145.77069531487089
 11
55.64983373230973
 21
152.64864397275738
  0
LINE
  8
_0-0_0
  6
CONTINUOUS
 62
    7
 10
53.599838103746606
 20
151.6486406735597
 11
47.599836866547491
 21
151.6486406735597
  0
LINE
  8
_0-0_0
  6
CONTINUOUS
 62
    7
 10
53.599838103746606
 20
151.6486406735597
 11
55.64983373230973
 21
151.6486406735597
  0
LINE
  8
_0-0_0
  6
CONTINUOUS
 62
    7
 10
55.64983373230973
 20
151.6486406735597
 11
66.441228765037749
 21
151.6486406735597
  0
LINE
  8
_0-0_0
  6
CONTINUOUS
 62
    7
 10
84.654197745981605
 20
108.56321867319019
 11
141.65420022037983
 21
108.56321867319019
  0
LINE
  8
_0-0_0
  6
CONTINUOUS
 62
    7
 10
84.654197745981605
 20
108.56321867319019
 11
87.551977880852803
 21
109.33967246462808
  0
LINE
  8
_0-0_0
  6
CONTINUOUS
 62
    7
 10
84.654197745981605
 20
108.56321867319019
 11
87.551977880852803
 21
107.78676488175228
  0
LINE
  8
_0-0_0
  6
CONTINUOUS
 62
    7
 10
141.65420022037983
 20
108.56321867319019
 11
138.75642008550864
 21
109.33967246462808
  0
LINE
  8
_0-0_0
  6
CONTINUOUS
 62
    7
 10
141.65420022037983
 20
108.56321867319019
 11
138.75642008550864
 21
107.78676488175228
  0
LINE
  8
_0-0_0
  6
CONTINUOUS
 62
    7
 10
84.654197745981605
 20
106.56322444678608
 11
84.654197745981605
 21
130.9479117158422
  0
LINE
  8
_0-0_0
  6
CONTINUOUS
 62
    7
 10
141.65420022037983
 20
106.56322444678608
 11
141.65420022037983
 21
130.9479117158422
  0
LINE
  8
_0-0_0
  6
CONTINUOUS
 62
    7
 10
163.27783022856184
 20
142.69068812262009
 11
163.27783022856184
 21
130.67069251055298
  0
LINE
  8
_0-0_0
  6
CONTINUOUS
 62
    7
 10
163.27783022856184
 20
142.69068812262009
 11
162.50137643712395
 21
145.58846825749129
  0
LINE
  8
_0-0_0
  6
CONTINUOUS
 62
    7
 10
163.27783022856184
 20
142.69068812262009
 11
164.05429639199085
 21
145.58846825749129
  0
LINE
  8
_0-0_0
  6
CONTINUOUS
 62
    7
 10
163.27783022856184
 20
130.67069251055298
 11
162.50137643712395
 21
127.7729123756817
  0
LINE
  8
_0-0_0
  6
CONTINUOUS
 62
    7
 10
163.27783022856184
 20
130.67069251055298
 11
164.05429639199085
 21
127.7729123756817
  0
LINE
  8
_0-0_0
  6
CONTINUOUS
 62
    7
 10
165.27783682695704
 20
142.69068812262009
 11
141.29403918654324
 21
142.69068812262009
  0
LINE
  8
_0-0_0
  6
CONTINUOUS
 62
    7
 10
165.27783682695704
 20
130.67069251055298
 11
141.29403918654324
 21
130.67069251055298
  0
LINE
  8
_0-0_0
  6
CENTER2
 62
    7
 10
76.637110376629835
 20
136.67068756175649
 11
156.02937755225264
 21
136.67068756175649
  0
LINE
  8
_0-0_0
  6
CONTINUOUS
 62
    7
 10
123.38881111301075
 20
227.2904872014841
 11
123.39811485034184
 21
227.32708355125189
  0
LINE
  8
_0-0_0
  6
CONTINUOUS
 62
    7
 10
123.39811485034184
 20
227.32708355125189
 11
123.43295437736884
 21
227.36956896879838
  0
LINE
  8
_0-0_0
  6
CONTINUOUS
 62
    7
 10
123.43295437736884
 20
227.36956896879838
 11
123.49813002665094
 21
227.41371223315647
  0
LINE
  8
_0-0_0
  6
CONTINUOUS
 62
    7
 10
123.49813002665094
 20
227.41371223315647
 11
123.58663925120744
 21
227.44971472734989
  0
LINE
  8
_0-0_0
  6
CONTINUOUS
 62
    7
 10
123.58663925120744
 20
227.44971472734989
 11
123.69306311892294
 21
227.47431024571978
  0
LINE
  8
_0-0_0
  6
CONTINUOUS
 62
    7
 10
123.69306311892294
 20
227.47431024571978
 11
123.81037433883424
 21
227.48507387800439
  0
LINE
  8
_0-0_0
  6
CONTINUOUS
 62
    7
 10
123.81037433883424
 20
227.48507387800439
 11
123.85221641284184
 21
227.48358923906858
  0
LINE
  8
_0-0_0
  6
CONTINUOUS
 62
    7
 10
91.985332439024234
 20
201.07262963444438
 11
92.033904876207515
 21
201.0748318488659
  0
LINE
  8
_0-0_0
  6
CONTINUOUS
 62
    7
 10
92.033904876207515
 20
201.0748318488659
 11
92.152181111427097
 21
201.0651569518009
  0
LINE
  8
_0-0_0
  6
CONTINUOUS
 62
    7
 10
92.152181111427097
 20
201.0651569518009
 11
92.260683473652634
 21
201.04120477696978
  0
LINE
  8
_0-0_0
  6
CONTINUOUS
 62
    7
 10
92.260683473652634
 20
201.04120477696978
 11
92.351147472808023
 21
201.00549921056358
  0
LINE
  8
_0-0_0
  6
CONTINUOUS
 62
    7
 10
92.351147472808023
 20
201.00549921056358
 11
92.416916977664442
 21
200.96241993744277
  0
LINE
  8
_0-0_0
  6
CONTINUOUS
 62
    7
 10
92.416916977664442
 20
200.96241993744277
 11
92.454602062651773
 21
200.91825192910238
  0
LINE
  8
_0-0_0
  6
CONTINUOUS
 62
    7
 10
92.454602062651773
 20
200.91825192910238
 11
92.466850333872245
 21
200.8779687259773
  0
LINE
  8
_0-0_0
  6
CONTINUOUS
 62
    7
 10
92.466850333872245
 20
200.8779687259773
 11
92.464796583344366
 21
200.86992693174167
  0
LINE
  8
_0-0_0
  6
CONTINUOUS
 62
    7
 10
91.569559305050447
 20
200.87373750501038
 11
91.568767497617984
 21
200.8917263801159
  0
LINE
  8
_0-0_0
  6
CONTINUOUS
 62
    7
 10
91.568767497617984
 20
200.8917263801159
 11
91.58910705103861
 21
200.93324678235399
  0
LINE
  8
_0-0_0
  6
CONTINUOUS
 62
    7
 10
91.58910705103861
 20
200.93324678235399
 11
91.633819426988794
 21
200.9758311758296
  0
LINE
  8
_0-0_0
  6
CONTINUOUS
 62
    7
 10
91.633819426988794
 20
200.9758311758296
 11
91.707853421921186
 21
201.01740106603228
  0
LINE
  8
_0-0_0
  6
CONTINUOUS
 62
    7
 10
91.707853421921186
 20
201.01740106603228
 11
91.803464169387425
 21
201.04959298695718
  0
LINE
  8
_0-0_0
  6
CONTINUOUS
 62
    7
 10
91.803464169387425
 20
201.04959298695718
 11
91.914762601608729
 21
201.06943766073249
  0
LINE
  8
_0-0_0
  6
CONTINUOUS
 62
    7
 10
91.914762601608729
 20
201.06943766073249
 11
91.985332439024234
 21
201.07262963444438
  0
LINE
  8
_0-0_0
  6
CONTINUOUS
 62
    7
 10
133.88768278741955
 20
222.03367765756528
 11
133.89866911554455
 21
222.0768311626328
  0
LINE
  8
_0-0_0
  6
CONTINUOUS
 62
    7
 10
133.89866911554455
 20
222.0768311626328
 11
133.93348389858923
 21
222.11929183619688
  0
LINE
  8
_0-0_0
  6
CONTINUOUS
 62
    7
 10
133.93348389858923
 20
222.11929183619688
 11
133.99868429185364
 21
222.16343510055509
  0
LINE
  8
_0-0_0
  6
CONTINUOUS
 62
    7
 10
133.99868429185364
 20
222.16343510055509
 11
134.08716877242793
 21
222.19943759474847
  0
LINE
  8
_0-0_0
  6
CONTINUOUS
 62
    7
 10
134.08716877242793
 20
222.19943759474847
 11
134.19361738412553
 21
222.2240331131184
  0
LINE
  8
_0-0_0
  6
CONTINUOUS
 62
    7
 10
134.19361738412553
 20
222.2240331131184
 11
134.25503194810364
 21
222.22967474107449
  0
LINE
  8
_0-0_0
  6
CONTINUOUS
 62
    7
 10
135.33555216558673
 20
222.03083209960488
 11
135.36044461174384
 21
222.04298139489629
  0
LINE
  8
_0-0_0
  6
CONTINUOUS
 62
    7
 10
135.36044461174384
 20
222.04298139489629
 11
135.38625258524473
 21
222.06151463761168
  0
LINE
  8
_0-0_0
  6
CONTINUOUS
 62
    7
 10
81.528030654818167
 20
206.32486154164459
 11
81.533375354987072
 21
206.32510898146728
  0
LINE
  8
_0-0_0
  6
CONTINUOUS
 62
    7
 10
81.533375354987072
 20
206.32510898146728
 11
81.651651590206683
 21
206.31540934041999
  0
LINE
  8
_0-0_0
  6
CONTINUOUS
 62
    7
 10
81.651651590206683
 20
206.31540934041999
 11
81.760129208449939
 21
206.29148190957119
  0
LINE
  8
_0-0_0
  6
CONTINUOUS
 62
    7
 10
81.760129208449939
 20
206.29148190957119
 11
81.850617951587594
 21
206.25577634316488
  0
LINE
  8
_0-0_0
  6
CONTINUOUS
 62
    7
 10
81.850617951587594
 20
206.25577634316488
 11
81.916387456443999
 21
206.2126970700441
  0
LINE
  8
_0-0_0
  6
CONTINUOUS
 62
    7
 10
81.916387456443999
 20
206.2126970700441
 11
81.954072541431344
 21
206.16852906170368
  0
LINE
  8
_0-0_0
  6
CONTINUOUS
 62
    7
 10
81.954072541431344
 20
206.16852906170368
 11
81.966320812651759
 21
206.12824585857879
  0
LINE
  8
_0-0_0
  6
CONTINUOUS
 62
    7
 10
81.966320812651759
 20
206.12824585857879
 11
81.965924908935563
 21
206.1267612196429
  0
LINE
  8
_0-0_0
  6
CONTINUOUS
 62
    7
 10
81.069128759759053
 20
206.12149075142079
 11
81.068237976397597
 21
206.14200351271728
  0
LINE
  8
_0-0_0
  6
CONTINUOUS
 62
    7
 10
81.068237976397597
 20
206.14200351271728
 11
81.088552785835873
 21
206.1835239149554
  0
LINE
  8
_0-0_0
  6
CONTINUOUS
 62
    7
 10
81.088552785835873
 20
206.1835239149554
 11
81.133265161786085
 21
206.22610830843098
  0
LINE
  8
_0-0_0
  6
CONTINUOUS
 62
    7
 10
81.133265161786085
 20
206.22610830843098
 11
81.207299156718506
 21
206.26765345465128
  0
LINE
  8
_0-0_0
  6
CONTINUOUS
 62
    7
 10
81.207299156718506
 20
206.26765345465128
 11
81.302934648166968
 21
206.29987011955848
  0
LINE
  8
_0-0_0
  6
CONTINUOUS
 62
    7
 10
81.302934648166968
 20
206.29987011955848
 11
81.414208336405977
 21
206.31971479333379
  0
LINE
  8
_0-0_0
  6
CONTINUOUS
 62
    7
 10
81.414208336405977
 20
206.31971479333379
 11
81.528030654818167
 21
206.32486154164459
  0
LINE
  8
_0-0_0
  6
CONTINUOUS
 62
    7
 10
80.467379855092645
 20
206.15160417783548
 11
80.49316308461124
 21
206.13307093512009
  0
LINE
  8
_0-0_0
  6
CONTINUOUS
 62
    7
 10
80.49316308461124
 20
206.13307093512009
 11
80.518080274750616
 21
206.12094638381097
  0
LINE
  8
_0-0_0
  6
CONTINUOUS
 62
    7
 10
123.69529007732655
 20
245.76533411871389
 11
123.65193862040094
 21
245.79779822344369
  0
LINE
  8
_0-0_0
  6
CONTINUOUS
 62
    7
 10
123.65193862040094
 20
245.79779822344369
 11
123.63672107130884
 21
245.83605242002307
  0
LINE
  8
_0-0_0
  6
CONTINUOUS
 62
    7
 10
123.63672107130884
 20
245.83605242002307
 11
123.65193862040094
 21
245.87433136058468
  0
LINE
  8
_0-0_0
  6
CONTINUOUS
 62
    7
 10
123.65193862040094
 20
245.87433136058468
 11
123.69529007732655
 21
245.90677072133207
  0
LINE
  8
_0-0_0
  6
CONTINUOUS
 62
    7
 10
123.69529007732655
 20
245.90677072133207
 11
123.76016879882154
 21
245.92844644979488
  0
LINE
  8
_0-0_0
  6
CONTINUOUS
 62
    7
 10
123.76016879882154
 20
245.92844644979488
 11
123.83670193596254
 21
245.93606759633218
  0
LINE
  8
_0-0_0
  6
CONTINUOUS
 62
    7
 10
123.83670193596254
 20
245.93606759633218
 11
123.91325981708594
 21
245.92844644979488
  0
LINE
  8
_0-0_0
  6
CONTINUOUS
 62
    7
 10
123.91325981708594
 20
245.92844644979488
 11
123.97813853858084
 21
245.90677072133207
  0
LINE
  8
_0-0_0
  6
CONTINUOUS
 62
    7
 10
123.97813853858084
 20
245.90677072133207
 11
124.02148999550654
 21
245.87433136058468
  0
LINE
  8
_0-0_0
  6
CONTINUOUS
 62
    7
 10
124.02148999550654
 20
245.87433136058468
 11
124.03670754459854
 21
245.83605242002307
  0
LINE
  8
_0-0_0
  6
CONTINUOUS
 62
    7
 10
124.03670754459854
 20
245.83605242002307
 11
124.02148999550654
 21
245.79779822344369
  0
LINE
  8
_0-0_0
  6
CONTINUOUS
 62
    7
 10
124.02148999550654
 20
245.79779822344369
 11
123.97813853858084
 21
245.76533411871389
  0
LINE
  8
_0-0_0
  6
CONTINUOUS
 62
    7
 10
123.97813853858084
 20
245.76533411871389
 11
123.91325981708594
 21
245.74365839025097
  0
LINE
  8
_0-0_0
  6
CONTINUOUS
 62
    7
 10
123.91325981708594
 20
245.74365839025097
 11
123.83670193596254
 21
245.73606198769608
  0
LINE
  8
_0-0_0
  6
CONTINUOUS
 62
    7
 10
123.83670193596254
 20
245.73606198769608
 11
123.76016879882154
 21
245.74365839025097
  0
LINE
  8
_0-0_0
  6
CONTINUOUS
 62
    7
 10
123.76016879882154
 20
245.74365839025097
 11
123.69529007732655
 21
245.76533411871389
  0
LINE
  8
_0-0_0
  6
CONTINUOUS
 62
    7
 10
134.51402721045585
 20
240.63882638539457
 11
134.55737866738153
 21
240.60638702464718
  0
LINE
  8
_0-0_0
  6
CONTINUOUS
 62
    7
 10
134.55737866738153
 20
240.60638702464718
 11
134.57259621647353
 21
240.56810808408551
  0
LINE
  8
_0-0_0
  6
CONTINUOUS
 62
    7
 10
134.57259621647353
 20
240.56810808408551
 11
134.55737866738153
 21
240.52985388750608
  0
LINE
  8
_0-0_0
  6
CONTINUOUS
 62
    7
 10
134.55737866738153
 20
240.52985388750608
 11
134.51402721045585
 21
240.49738978277639
  0
LINE
  8
_0-0_0
  6
CONTINUOUS
 62
    7
 10
134.51402721045585
 20
240.49738978277639
 11
134.44914848896084
 21
240.47571405431347
  0
LINE
  8
_0-0_0
  6
CONTINUOUS
 62
    7
 10
134.44914848896084
 20
240.47571405431347
 11
134.37259060783754
 21
240.46811765175858
  0
LINE
  8
_0-0_0
  6
CONTINUOUS
 62
    7
 10
134.37259060783754
 20
240.46811765175858
 11
134.29605747069655
 21
240.47571405431347
  0
LINE
  8
_0-0_0
  6
CONTINUOUS
 62
    7
 10
134.29605747069655
 20
240.47571405431347
 11
134.23117874920163
 21
240.49738978277639
  0
LINE
  8
_0-0_0
  6
CONTINUOUS
 62
    7
 10
134.23117874920163
 20
240.49738978277639
 11
134.18782729227593
 21
240.52985388750608
  0
LINE
  8
_0-0_0
  6
CONTINUOUS
 62
    7
 10
134.18782729227593
 20
240.52985388750608
 11
134.17260974318384
 21
240.56810808408551
  0
LINE
  8
_0-0_0
  6
CONTINUOUS
 62
    7
 10
134.17260974318384
 20
240.56810808408551
 11
134.18782729227593
 21
240.60638702464718
  0
LINE
  8
_0-0_0
  6
CONTINUOUS
 62
    7
 10
134.18782729227593
 20
240.60638702464718
 11
134.23117874920163
 21
240.63882638539457
  0
LINE
  8
_0-0_0
  6
CONTINUOUS
 62
    7
 10
134.23117874920163
 20
240.63882638539457
 11
134.29605747069655
 21
240.66050211385738
  0
LINE
  8
_0-0_0
  6
CONTINUOUS
 62
    7
 10
134.29605747069655
 20
240.66050211385738
 11
134.37259060783754
 21
240.66809851641239
  0
LINE
  8
_0-0_0
  6
CONTINUOUS
 62
    7
 10
134.37259060783754
 20
240.66809851641239
 11
134.44914848896084
 21
240.66050211385738
  0
LINE
  8
_0-0_0
  6
CONTINUOUS
 62
    7
 10
134.44914848896084
 20
240.66050211385738
 11
134.51402721045585
 21
240.63882638539457
  0
LINE
  8
_0-0_0
  6
CONTINUOUS
 62
    7
 10
121.82145304449294
 20
245.41001053340977
 11
121.81454947344145
 21
245.40738767128988
  0
LINE
  8
_0-0_0
  6
CONTINUOUS
 62
    7
 10
121.81454947344145
 20
245.40738767128988
 11
121.80791808619485
 21
245.4065463758929
  0
LINE
  8
_0-0_0
  6
CONTINUOUS
 62
    7
 10
121.80791808619485
 20
245.4065463758929
 11
121.80180632257574
 21
245.40748664721889
  0
LINE
  8
_0-0_0
  6
CONTINUOUS
 62
    7
 10
121.80180632257574
 20
245.40748664721889
 11
121.79646162240684
 21
245.41018374128566
  0
LINE
  8
_0-0_0
  6
CONTINUOUS
 62
    7
 10
121.79646162240684
 20
245.41018374128566
 11
121.79205719356393
 21
245.41456342614629
  0
LINE
  8
_0-0_0
  6
CONTINUOUS
 62
    7
 10
121.79205719356393
 20
245.41456342614629
 11
121.78879098790514
 21
245.4204030059604
  0
LINE
  8
_0-0_0
  6
CONTINUOUS
 62
    7
 10
121.78879098790514
 20
245.4204030059604
 11
121.78678672534184
 21
245.42752927285238
  0
LINE
  8
_0-0_0
  6
CONTINUOUS
 62
    7
 10
121.78678672534184
 20
245.42752927285238
 11
121.78609389383844
 21
245.43562055505248
  0
LINE
  8
_0-0_0
  6
CONTINUOUS
 62
    7
 10
121.71540033651154
 20
245.3569841794191
 11
121.71676125553604
 21
245.34075212705432
  0
LINE
  8
_0-0_0
  6
CONTINUOUS
 62
    7
 10
121.71676125553604
 20
245.34075212705432
 11
121.72076978066274
 21
245.32652433725281
  0
LINE
  8
_0-0_0
  6
CONTINUOUS
 62
    7
 10
121.72076978066274
 20
245.32652433725281
 11
121.72730219198034
 21
245.31482043364207
  0
LINE
  8
_0-0_0
  6
CONTINUOUS
 62
    7
 10
121.72730219198034
 20
245.31482043364207
 11
121.73611104966614
 21
245.30608580790306
  0
LINE
  8
_0-0_0
  6
CONTINUOUS
 62
    7
 10
121.73611104966614
 20
245.30608580790306
 11
121.74682519398624
 21
245.30066687578727
  0
LINE
  8
_0-0_0
  6
CONTINUOUS
 62
    7
 10
121.74682519398624
 20
245.30066687578727
 11
121.75904872122435
 21
245.2987863331353
  0
LINE
  8
_0-0_0
  6
CONTINUOUS
 62
    7
 10
121.75904872122435
 20
245.2987863331353
 11
121.77231149571764
 21
245.3004936679115
  0
LINE
  8
_0-0_0
  6
CONTINUOUS
 62
    7
 10
121.77231149571764
 20
245.3004936679115
 11
121.78609389383844
 21
245.3057146481691
  0
LINE
  8
_0-0_0
  6
CONTINUOUS
 62
    7
 10
121.68004118585704
 20
245.68570798378988
 11
121.68694475690855
 21
245.68833084590989
  0
LINE
  8
_0-0_0
  6
CONTINUOUS
 62
    7
 10
121.68694475690855
 20
245.68833084590989
 11
121.69357614415514
 21
245.68917214130681
  0
LINE
  8
_0-0_0
  6
CONTINUOUS
 62
    7
 10
121.69357614415514
 20
245.68917214130681
 11
121.69968790777423
 21
245.68823186998077
  0
LINE
  8
_0-0_0
  6
CONTINUOUS
 62
    7
 10
121.69968790777423
 20
245.68823186998077
 11
121.70503260794314
 21
245.68553477591411
  0
LINE
  8
_0-0_0
  6
CONTINUOUS
 62
    7
 10
121.70503260794314
 20
245.68553477591411
 11
121.70943703678604
 21
245.68115509105337
  0
LINE
  8
_0-0_0
  6
CONTINUOUS
 62
    7
 10
121.70943703678604
 20
245.68115509105337
 11
121.71270324244485
 21
245.67531551123921
  0
LINE
  8
_0-0_0
  6
CONTINUOUS
 62
    7
 10
121.71270324244485
 20
245.67531551123921
 11
121.71470750500814
 21
245.66818924434727
  0
LINE
  8
_0-0_0
  6
CONTINUOUS
 62
    7
 10
121.71470750500814
 20
245.66818924434727
 11
121.71540033651154
 21
245.66007321816488
  0
LINE
  8
_0-0_0
  6
CONTINUOUS
 62
    7
 10
121.78609389383844
 20
245.73873433778061
 11
121.78507939056564
 21
245.75296212758218
  0
LINE
  8
_0-0_0
  6
CONTINUOUS
 62
    7
 10
121.78507939056564
 20
245.75296212758218
 11
121.78198639278264
 21
245.76575476641239
  0
LINE
  8
_0-0_0
  6
CONTINUOUS
 62
    7
 10
121.78198639278264
 20
245.76575476641239
 11
121.77698810836544
 21
245.77671635055509
  0
LINE
  8
_0-0_0
  6
CONTINUOUS
 62
    7
 10
121.77698810836544
 20
245.77671635055509
 11
121.77015876926075
 21
245.78554995222316
  0
LINE
  8
_0-0_0
  6
CONTINUOUS
 62
    7
 10
121.77015876926075
 20
245.78554995222316
 11
121.76174581529114
 21
245.79195864362941
  0
LINE
  8
_0-0_0
  6
CONTINUOUS
 62
    7
 10
121.76174581529114
 20
245.79195864362941
 11
121.75197194229705
 21
245.79579396088019
  0
LINE
  8
_0-0_0
  6
CONTINUOUS
 62
    7
 10
121.75197194229705
 20
245.79579396088019
 11
121.74113407806564
 21
245.79690744008207
  0
LINE
  8
_0-0_0
  6
CONTINUOUS
 62
    7
 10
121.74113407806564
 20
245.79690744008207
 11
121.72952915038404
 21
245.79529908123499
  0
LINE
  8
_0-0_0
  6
CONTINUOUS
 62
    7
 10
121.00829155536714
 20
245.43468028372661
 11
120.99668662768553
 21
245.43628864257369
  0
LINE
  8
_0-0_0
  6
CONTINUOUS
 62
    7
 10
120.99668662768553
 20
245.43628864257369
 11
120.98584876345414
 21
245.43515041938957
  0
LINE
  8
_0-0_0
  6
CONTINUOUS
 62
    7
 10
120.98584876345414
 20
245.43515041938957
 11
120.97607489046004
 21
245.43133984612098
  0
LINE
  8
_0-0_0
  6
CONTINUOUS
 62
    7
 10
120.97607489046004
 20
245.43133984612098
 11
120.96766193649044
 21
245.42490641073238
  0
LINE
  8
_0-0_0
  6
CONTINUOUS
 62
    7
 10
120.96766193649044
 20
245.42490641073238
 11
120.96083259738575
 21
245.41609755304671
  0
LINE
  8
_0-0_0
  6
CONTINUOUS
 62
    7
 10
120.96083259738575
 20
245.41609755304671
 11
120.95580956898624
 21
245.40513596890389
  0
LINE
  8
_0-0_0
  6
CONTINUOUS
 62
    7
 10
120.95580956898624
 20
245.40513596890389
 11
120.95274131518553
 21
245.39234333007369
  0
LINE
  8
_0-0_0
  6
CONTINUOUS
 62
    7
 10
120.95274131518553
 20
245.39234333007369
 11
120.95172681191274
 21
245.37811554027206
  0
LINE
  8
_0-0_0
  6
CONTINUOUS
 62
    7
 10
92.255561469324093
 20
225.2105327963954
 11
92.182566721646722
 21
225.23493036290728
  0
LINE
  8
_0-0_0
  6
CONTINUOUS
 62
    7
 10
92.182566721646722
 20
225.23493036290728
 11
92.096457663369677
 21
225.24349178077048
  0
LINE
  8
_0-0_0
  6
CONTINUOUS
 62
    7
 10
92.096457663369677
 20
225.24349178077048
 11
92.010348605092659
 21
225.23493036290728
  0
LINE
  8
_0-0_0
  6
CONTINUOUS
 62
    7
 10
92.010348605092659
 20
225.23493036290728
 11
91.937353857415303
 21
225.2105327963954
  0
LINE
  8
_0-0_0
  6
CONTINUOUS
 62
    7
 10
91.937353857415303
 20
225.2105327963954
 11
91.888583468373909
 21
225.17403542255678
  0
LINE
  8
_0-0_0
  6
CONTINUOUS
 62
    7
 10
91.888583468373909
 20
225.17403542255678
 11
91.871460632647583
 21
225.13100563740059
  0
LINE
  8
_0-0_0
  6
CONTINUOUS
 62
    7
 10
91.871460632647583
 20
225.13100563740059
 11
91.888583468373909
 21
225.08795110826208
  0
LINE
  8
_0-0_0
  6
CONTINUOUS
 62
    7
 10
91.888583468373909
 20
225.08795110826208
 11
91.937353857415303
 21
225.05145373442329
  0
LINE
  8
_0-0_0
  6
CONTINUOUS
 62
    7
 10
91.937353857415303
 20
225.05145373442329
 11
92.010348605092659
 21
225.0270561679115
  0
LINE
  8
_0-0_0
  6
CONTINUOUS
 62
    7
 10
92.010348605092659
 20
225.0270561679115
 11
92.096457663369677
 21
225.01849475004829
  0
LINE
  8
_0-0_0
  6
CONTINUOUS
 62
    7
 10
92.096457663369677
 20
225.01849475004829
 11
92.182566721646722
 21
225.0270561679115
  0
LINE
  8
_0-0_0
  6
CONTINUOUS
 62
    7
 10
92.182566721646722
 20
225.0270561679115
 11
92.255561469324093
 21
225.05145373442329
  0
LINE
  8
_0-0_0
  6
CONTINUOUS
 62
    7
 10
92.255561469324093
 20
225.05145373442329
 11
92.304331858365472
 21
225.08795110826208
  0
LINE
  8
_0-0_0
  6
CONTINUOUS
 62
    7
 10
92.304331858365472
 20
225.08795110826208
 11
92.321454694091827
 21
225.13100563740059
  0
LINE
  8
_0-0_0
  6
CONTINUOUS
 62
    7
 10
92.321454694091827
 20
225.13100563740059
 11
92.304331858365472
 21
225.17403542255678
  0
LINE
  8
_0-0_0
  6
CONTINUOUS
 62
    7
 10
92.304331858365472
 20
225.17403542255678
 11
92.255561469324093
 21
225.2105327963954
  0
LINE
  8
_0-0_0
  6
CONTINUOUS
 62
    7
 10
122.72458365312895
 20
240.60416006624348
 11
122.59502416199724
 21
240.61173172481608
  0
LINE
  8
_0-0_0
  6
CONTINUOUS
 62
    7
 10
122.59502416199724
 20
240.61173172481608
 11
122.46657815006733
 21
240.60039898093936
  0
LINE
  8
_0-0_0
  6
CONTINUOUS
 62
    7
 10
122.46657815006733
 20
240.60039898093936
 11
122.35000924962394
 21
240.57112684992171
  0
LINE
  8
_0-0_0
  6
CONTINUOUS
 62
    7
 10
122.35000924962394
 20
240.57112684992171
 11
122.25511607764334
 21
240.52636498600691
  0
LINE
  8
_0-0_0
  6
CONTINUOUS
 62
    7
 10
122.25511607764334
 20
240.52636498600691
 11
122.18991568437895
 21
240.4698992184816
  0
LINE
  8
_0-0_0
  6
CONTINUOUS
 62
    7
 10
122.18991568437895
 20
240.4698992184816
 11
122.15982700194654
 21
240.40643090397566
  0
LINE
  8
_0-0_0
  6
CONTINUOUS
 62
    7
 10
122.15982700194654
 20
240.40643090397566
 11
122.16739866051914
 21
240.3413294866404
  0
LINE
  8
_0-0_0
  6
CONTINUOUS
 62
    7
 10
122.16739866051914
 20
240.3413294866404
 11
122.21201206054025
 21
240.28003864257369
  0
LINE
  8
_0-0_0
  6
CONTINUOUS
 62
    7
 10
122.21201206054025
 20
240.28003864257369
 11
122.28990611670584
 21
240.22772986406846
  0
LINE
  8
_0-0_0
  6
CONTINUOUS
 62
    7
 10
122.28990611670584
 20
240.22772986406846
 11
122.39454841769825
 21
240.18878283598576
  0
LINE
  8
_0-0_0
  6
CONTINUOUS
 62
    7
 10
122.39454841769825
 20
240.18878283598576
 11
122.51710536184945
 21
240.16646376398421
  0
LINE
  8
_0-0_0
  6
CONTINUOUS
 62
    7
 10
122.51710536184945
 20
240.16646376398421
 11
122.64733294050224
 21
240.1626779346978
  0
LINE
  8
_0-0_0
  6
CONTINUOUS
 62
    7
 10
122.64733294050224
 20
240.1626779346978
 11
122.77424482553184
 21
240.17772227591411
  0
LINE
  8
_0-0_0
  6
CONTINUOUS
 62
    7
 10
122.77424482553184
 20
240.17772227591411
 11
122.88722584854705
 21
240.21033484453727
  0
LINE
  8
_0-0_0
  6
CONTINUOUS
 62
    7
 10
122.88722584854705
 20
240.21033484453727
 11
122.97672483239414
 21
240.25776905853638
  0
LINE
  8
_0-0_0
  6
CONTINUOUS
 62
    7
 10
122.97672483239414
 20
240.25776905853638
 11
123.03526909442964
 21
240.31604113676707
  0
LINE
  8
_0-0_0
  6
CONTINUOUS
 62
    7
 10
123.03526909442964
 20
240.31604113676707
 11
123.05793458218304
 21
240.38027651472316
  0
LINE
  8
_0-0_0
  6
CONTINUOUS
 62
    7
 10
123.05793458218304
 20
240.38027651472316
 11
123.04279126503774
 21
240.44505626028911
  0
LINE
  8
_0-0_0
  6
CONTINUOUS
 62
    7
 10
123.91625383893974
 20
240.88178754723998
 11
123.96502422798115
 21
240.91828492107879
  0
LINE
  8
_0-0_0
  6
CONTINUOUS
 62
    7
 10
123.96502422798115
 20
240.91828492107879
 11
123.98217180768974
 21
240.96133945021728
  0
LINE
  8
_0-0_0
  6
CONTINUOUS
 62
    7
 10
123.98217180768974
 20
240.96133945021728
 11
123.96502422798115
 21
241.00439397935577
  0
LINE
  8
_0-0_0
  6
CONTINUOUS
 62
    7
 10
123.96502422798115
 20
241.00439397935577
 11
123.91625383893974
 21
241.04089135319447
  0
LINE
  8
_0-0_0
  6
CONTINUOUS
 62
    7
 10
123.91625383893974
 20
241.04089135319447
 11
123.84325909126244
 21
241.06528891970629
  0
LINE
  8
_0-0_0
  6
CONTINUOUS
 62
    7
 10
123.84325909126244
 20
241.06528891970629
 11
123.75715003298534
 21
241.07385033756947
  0
LINE
  8
_0-0_0
  6
CONTINUOUS
 62
    7
 10
123.75715003298534
 20
241.07385033756947
 11
123.67106571869064
 21
241.06528891970629
  0
LINE
  8
_0-0_0
  6
CONTINUOUS
 62
    7
 10
123.67106571869064
 20
241.06528891970629
 11
123.59807097101324
 21
241.04089135319447
  0
LINE
  8
_0-0_0
  6
CONTINUOUS
 62
    7
 10
119.24050723051494
 20
238.2787701010829
 11
119.33587053815855
 21
238.34090224054671
  0
LINE
  8
_0-0_0
  6
CONTINUOUS
 62
    7
 10
119.33587053815855
 20
238.34090224054671
 11
119.39580046320074
 21
238.4132536446852
  0
LINE
  8
_0-0_0
  6
CONTINUOUS
 62
    7
 10
119.39580046320074
 20
238.4132536446852
 11
119.41626373653264
 21
238.49090026102806
  0
LINE
  8
_0-0_0
  6
CONTINUOUS
 62
    7
 10
119.41626373653264
 20
238.49090026102806
 11
119.39580046320074
 21
238.56854687737098
  0
LINE
  8
_0-0_0
  6
CONTINUOUS
 62
    7
 10
119.39580046320074
 20
238.56854687737098
 11
119.33587053815855
 21
238.64089828150946
  0
LINE
  8
_0-0_0
  6
CONTINUOUS
 62
    7
 10
119.33587053815855
 20
238.64089828150946
 11
119.24050723051494
 21
238.70303042097316
  0
LINE
  8
_0-0_0
  6
CONTINUOUS
 62
    7
 10
119.24050723051494
 20
238.70303042097316
 11
119.11624295158754
 21
238.75071207479488
  0
LINE
  8
_0-0_0
  6
CONTINUOUS
 62
    7
 10
119.11624295158754
 20
238.75071207479488
 11
118.97154014331053
 21
238.78067703731608
  0
LINE
  8
_0-0_0
  6
CONTINUOUS
 62
    7
 10
118.97154014331053
 20
238.78067703731608
 11
118.81624691062474
 21
238.79089630199098
  0
LINE
  8
_0-0_0
  6
CONTINUOUS
 62
    7
 10
118.81624691062474
 20
238.79089630199098
 11
118.66095367793893
 21
238.78067703731608
  0
LINE
  8
_0-0_0
  6
CONTINUOUS
 62
    7
 10
118.66095367793893
 20
238.78067703731608
 11
118.51625086966195
 21
238.75071207479488
  0
LINE
  8
_0-0_0
  6
CONTINUOUS
 62
    7
 10
118.51625086966195
 20
238.75071207479488
 11
118.39198659073455
 21
238.70303042097316
  0
LINE
  8
_0-0_0
  6
CONTINUOUS
 62
    7
 10
117.82631441220833
 20
238.420181959719
 11
117.73095110456474
 21
238.35804982025519
  0
LINE
  8
_0-0_0
  6
CONTINUOUS
 62
    7
 10
117.73095110456474
 20
238.35804982025519
 11
117.67102117952254
 21
238.28569841611682
  0
LINE
  8
_0-0_0
  6
CONTINUOUS
 62
    7
 10
117.67102117952254
 20
238.28569841611682
 11
117.65055790619064
 21
238.2080517997739
  0
LINE
  8
_0-0_0
  6
CONTINUOUS
 62
    7
 10
117.65055790619064
 20
238.2080517997739
 11
117.67102117952254
 21
238.13040518343087
  0
LINE
  8
_0-0_0
  6
CONTINUOUS
 62
    7
 10
117.67102117952254
 20
238.13040518343087
 11
117.73095110456474
 21
238.05805377929249
  0
LINE
  8
_0-0_0
  6
CONTINUOUS
 62
    7
 10
117.73095110456474
 20
238.05805377929249
 11
117.82631441220833
 21
237.99592163982879
  0
LINE
  8
_0-0_0
  6
CONTINUOUS
 62
    7
 10
117.82631441220833
 20
237.99592163982879
 11
117.95057869113575
 21
237.94823998600691
  0
LINE
  8
_0-0_0
  6
CONTINUOUS
 62
    7
 10
117.95057869113575
 20
237.94823998600691
 11
118.09528149941274
 21
237.91827502348576
  0
LINE
  8
_0-0_0
  6
CONTINUOUS
 62
    7
 10
118.09528149941274
 20
237.91827502348576
 11
118.25057473209854
 21
237.90805575881086
  0
LINE
  8
_0-0_0
  6
CONTINUOUS
 62
    7
 10
118.25057473209854
 20
237.90805575881086
 11
118.40586796478433
 21
237.91827502348576
  0
LINE
  8
_0-0_0
  6
CONTINUOUS
 62
    7
 10
118.40586796478433
 20
237.91827502348576
 11
118.55057077306134
 21
237.94823998600691
  0
LINE
  8
_0-0_0
  6
CONTINUOUS
 62
    7
 10
118.55057077306134
 20
237.94823998600691
 11
118.67483505198874
 21
237.99592163982879
  0
LINE
  8
_0-0_0
  6
CONTINUOUS
 62
    7
 10
98.027318028129017
 20
227.67216312789878
 11
98.122656591790303
 21
227.73429526736248
  0
LINE
  8
_0-0_0
  6
CONTINUOUS
 62
    7
 10
98.122656591790303
 20
227.73429526736248
 11
98.182611260814795
 21
227.80664667150108
  0
LINE
  8
_0-0_0
  6
CONTINUOUS
 62
    7
 10
98.182611260814795
 20
227.80664667150108
 11
98.203049790164442
 21
227.88429328784397
  0
LINE
  8
_0-0_0
  6
CONTINUOUS
 62
    7
 10
98.203049790164442
 20
227.88429328784397
 11
98.182611260814795
 21
227.96193990418678
  0
LINE
  8
_0-0_0
  6
CONTINUOUS
 62
    7
 10
98.182611260814795
 20
227.96193990418678
 11
98.122656591790303
 21
228.03429130832538
  0
LINE
  8
_0-0_0
  6
CONTINUOUS
 62
    7
 10
98.122656591790303
 20
228.03429130832538
 11
98.027318028129017
 21
228.09642344778899
  0
LINE
  8
_0-0_0
  6
CONTINUOUS
 62
    7
 10
98.027318028129017
 20
228.09642344778899
 11
97.903053749201604
 21
228.14410510161079
  0
LINE
  8
_0-0_0
  6
CONTINUOUS
 62
    7
 10
97.903053749201604
 20
228.14410510161079
 11
97.758350940924586
 21
228.17407006413188
  0
LINE
  8
_0-0_0
  6
CONTINUOUS
 62
    7
 10
97.758350940924586
 20
228.17407006413188
 11
97.603057708238794
 21
228.18428932880678
  0
LINE
  8
_0-0_0
  6
CONTINUOUS
 62
    7
 10
97.603057708238794
 20
228.18428932880678
 11
97.447764475552972
 21
228.17407006413188
  0
LINE
  8
_0-0_0
  6
CONTINUOUS
 62
    7
 10
97.447764475552972
 20
228.17407006413188
 11
97.303061667275955
 21
228.14410510161079
  0
LINE
  8
_0-0_0
  6
CONTINUOUS
 62
    7
 10
97.303061667275955
 20
228.14410510161079
 11
97.178797388348556
 21
228.09642344778899
  0
LINE
  8
_0-0_0
  6
CONTINUOUS
 62
    7
 10
96.613100465840105
 20
227.81357498653477
 11
96.517737158196553
 21
227.75144284707119
  0
LINE
  8
_0-0_0
  6
CONTINUOUS
 62
    7
 10
96.517737158196553
 20
227.75144284707119
 11
96.457807233154327
 21
227.67909144293267
  0
LINE
  8
_0-0_0
  6
CONTINUOUS
 62
    7
 10
96.457807233154327
 20
227.67909144293267
 11
96.437368703804637
 21
227.6014448265897
  0
LINE
  8
_0-0_0
  6
CONTINUOUS
 62
    7
 10
96.437368703804637
 20
227.6014448265897
 11
96.457807233154327
 21
227.52379821024678
  0
LINE
  8
_0-0_0
  6
CONTINUOUS
 62
    7
 10
96.457807233154327
 20
227.52379821024678
 11
96.517737158196553
 21
227.45144680610829
  0
LINE
  8
_0-0_0
  6
CONTINUOUS
 62
    7
 10
96.517737158196553
 20
227.45144680610829
 11
96.613100465840105
 21
227.38931466664468
  0
LINE
  8
_0-0_0
  6
CONTINUOUS
 62
    7
 10
96.613100465840105
 20
227.38931466664468
 11
96.73736474476749
 21
227.3416330128228
  0
LINE
  8
_0-0_0
  6
CONTINUOUS
 62
    7
 10
96.73736474476749
 20
227.3416330128228
 11
96.882067553044521
 21
227.31166805030168
  0
LINE
  8
_0-0_0
  6
CONTINUOUS
 62
    7
 10
96.882067553044521
 20
227.31166805030168
 11
97.037360785730314
 21
227.30144878562689
  0
LINE
  8
_0-0_0
  6
CONTINUOUS
 62
    7
 10
97.037360785730314
 20
227.30144878562689
 11
97.19265401841615
 21
227.31166805030168
  0
LINE
  8
_0-0_0
  6
CONTINUOUS
 62
    7
 10
97.19265401841615
 20
227.31166805030168
 11
97.337356826693167
 21
227.3416330128228
  0
LINE
  8
_0-0_0
  6
CONTINUOUS
 62
    7
 10
97.337356826693167
 20
227.3416330128228
 11
97.461621105620509
 21
227.38931466664468
  0
LINE
  8
_0-0_0
  6
CONTINUOUS
 62
    7
 10
101.56283718986884
 20
229.864183028659
 11
101.41625383893974
 21
229.92470680927548
  0
LINE
  8
_0-0_0
  6
CONTINUOUS
 62
    7
 10
101.41625383893974
 20
229.92470680927548
 11
101.24938042255464
 21
229.97026048062258
  0
LINE
  8
_0-0_0
  6
CONTINUOUS
 62
    7
 10
101.24938042255464
 20
229.97026048062258
 11
101.06830396035024
 21
229.99921093987098
  0
LINE
  8
_0-0_0
  6
CONTINUOUS
 62
    7
 10
101.06830396035024
 20
229.99921093987098
 11
100.87953211966195
 21
230.0104941957832
  0
LINE
  8
_0-0_0
  6
CONTINUOUS
 62
    7
 10
100.87953211966195
 20
230.0104941957832
 11
100.68991898357665
 21
230.0037143446429
  0
LINE
  8
_0-0_0
  6
CONTINUOUS
 62
    7
 10
100.68991898357665
 20
230.0037143446429
 11
100.50626914721684
 21
229.9791188262729
  0
LINE
  8
_0-0_0
  6
CONTINUOUS
 62
    7
 10
100.50626914721684
 20
229.9791188262729
 11
100.33526348579365
 21
229.93757368005248
  0
LINE
  8
_0-0_0
  6
CONTINUOUS
 62
    7
 10
100.33526348579365
 20
229.93757368005248
 11
100.18308799487303
 21
229.880613032882
  0
LINE
  8
_0-0_0
  6
CONTINUOUS
 62
    7
 10
100.18308799487303
 20
229.880613032882
 11
100.05521109453524
 21
229.81026589130678
  0
LINE
  8
_0-0_0
  6
CONTINUOUS
 62
    7
 10
100.05521109453524
 20
229.81026589130678
 11
99.956259909463455
 21
229.72910562948249
  0
LINE
  8
_0-0_0
  6
CONTINUOUS
 62
    7
 10
99.956259909463455
 20
229.72910562948249
 11
99.889822317085887
 21
229.64005203731608
  0
LINE
  8
_0-0_0
  6
CONTINUOUS
 62
    7
 10
99.889822317085887
 20
229.64005203731608
 11
99.858298483682205
 21
229.54629708851968
  0
LINE
  8
_0-0_0
  6
CONTINUOUS
 62
    7
 10
99.858298483682205
 20
229.54629708851968
 11
99.862801888454172
 21
229.45128019662769
  0
LINE
  8
_0-0_0
  6
CONTINUOUS
 62
    7
 10
99.862801888454172
 20
229.45128019662769
 11
99.903233555472738
 21
229.35839128721048
  0
LINE
  8
_0-0_0
  6
CONTINUOUS
 62
    7
 10
99.903233555472738
 20
229.35839128721048
 11
99.978059357837594
 21
229.27102028583798
  0
LINE
  8
_0-0_0
  6
CONTINUOUS
 62
    7
 10
99.978059357837594
 20
229.27102028583798
 11
100.08463168944654
 21
229.19228493427548
  0
LINE
  8
_0-0_0
  6
CONTINUOUS
 62
    7
 10
100.08463168944654
 20
229.19228493427548
 11
100.21904100110194
 21
229.1250802784478
  0
LINE
  8
_0-0_0
  6
CONTINUOUS
 62
    7
 10
100.21904100110194
 20
229.1250802784478
 11
100.37648696024463
 21
229.07180648463449
  0
LINE
  8
_0-0_0
  6
CONTINUOUS
 62
    7
 10
100.37648696024463
 20
229.07180648463449
 11
100.55125370697183
 21
229.03436883946978
  0
LINE
  8
_0-0_0
  6
CONTINUOUS
 62
    7
 10
100.55125370697183
 20
229.03436883946978
 11
100.73703152580634
 21
229.01417774994277
  0
LINE
  8
_0-0_0
  6
CONTINUOUS
 62
    7
 10
100.73703152580634
 20
229.01417774994277
 11
100.92709005357234
 21
229.01190130357449
  0
LINE
  8
_0-0_0
  6
CONTINUOUS
 62
    7
 10
100.92709005357234
 20
229.01190130357449
 11
101.11455046320074
 21
229.02766322027639
  0
LINE
  8
_0-0_0
  6
CONTINUOUS
 62
    7
 10
101.11455046320074
 20
229.02766322027639
 11
101.29268239151574
 21
229.06089438845618
  0
LINE
  8
_0-0_0
  6
CONTINUOUS
 62
    7
 10
101.29268239151574
 20
229.06089438845618
 11
101.45502765914674
 21
229.110357609001
  0
LINE
  8
_0-0_0
  6
CONTINUOUS
 62
    7
 10
101.45502765914674
 20
229.110357609001
 11
101.59569719831474
 21
229.17429605916999
  0
LINE
  8
_0-0_0
  6
CONTINUOUS
 62
    7
 10
101.59569719831474
 20
229.17429605916999
 11
101.70961849265593
 21
229.25040854861248
  0
LINE
  8
_0-0_0
  6
CONTINUOUS
 62
    7
 10
101.70961849265593
 20
229.25040854861248
 11
101.79268404111464
 21
229.33589900733298
  0
LINE
  8
_0-0_0
  6
CONTINUOUS
 62
    7
 10
101.79268404111464
 20
229.33589900733298
 11
101.84189982183673
 21
229.42772392551288
  0
LINE
  8
_0-0_0
  6
CONTINUOUS
 62
    7
 10
101.84189982183673
 20
229.42772392551288
 11
101.85545952411714
 21
229.52254286554668
  0
LINE
  8
_0-0_0
  6
CONTINUOUS
 62
    7
 10
101.85545952411714
 20
229.52254286554668
 11
101.83289301229284
 21
229.61691641389967
  0
LINE
  8
_0-0_0
  6
CONTINUOUS
 62
    7
 10
101.83289301229284
 20
229.61691641389967
 11
101.77499209379614
 21
229.70745464500189
  0
LINE
  8
_0-0_0
  6
CONTINUOUS
 62
    7
 10
101.77499209379614
 20
229.70745464500189
 11
101.68388475110194
 21
229.79089135319438
  0
LINE
  8
_0-0_0
  6
CONTINUOUS
 62
    7
 10
101.68388475110194
 20
229.79089135319438
 11
101.56283718986884
 21
229.864183028659
  0
LINE
  8
_0-0_0
  6
CONTINUOUS
 62
    7
 10
83.262930227242137
 20
226.10069755832538
 11
83.26565206529115
 21
226.06828294156008
  0
LINE
  8
_0-0_0
  6
CONTINUOUS
 62
    7
 10
83.26565206529115
 20
226.06828294156008
 11
83.273693859526773
 21
226.03980261797489
  0
LINE
  8
_0-0_0
  6
CONTINUOUS
 62
    7
 10
83.273693859526773
 20
226.03980261797489
 11
83.286758682161903
 21
226.01639481075358
  0
LINE
  8
_0-0_0
  6
CONTINUOUS
 62
    7
 10
83.286758682161903
 20
226.01639481075358
 11
83.304351653551294
 21
225.9989503032578
  0
LINE
  8
_0-0_0
  6
CONTINUOUS
 62
    7
 10
83.304351653551294
 20
225.9989503032578
 11
83.32577994219146
 21
225.98811243902639
  0
LINE
  8
_0-0_0
  6
CONTINUOUS
 62
    7
 10
83.32577994219146
 20
225.98811243902639
 11
83.350226996667828
 21
225.98432660974009
  0
LINE
  8
_0-0_0
  6
CONTINUOUS
 62
    7
 10
83.350226996667828
 20
225.98432660974009
 11
83.376752545654298
 21
225.98774127929238
  0
LINE
  8
_0-0_0
  6
CONTINUOUS
 62
    7
 10
83.376752545654298
 20
225.98774127929238
 11
83.404342085878156
 21
225.99820798378988
  0
LINE
  8
_0-0_0
  6
CONTINUOUS
 62
    7
 10
121.00829155536714
 20
245.30653119958379
 11
121.00895964288824
 21
245.31464722576629
  0
LINE
  8
_0-0_0
  6
CONTINUOUS
 62
    7
 10
121.00895964288824
 20
245.31464722576629
 11
121.01096390545155
 21
245.32174874867587
  0
LINE
  8
_0-0_0
  6
CONTINUOUS
 62
    7
 10
121.01096390545155
 20
245.32174874867587
 11
121.01425485509264
 21
245.32761307247227
  0
LINE
  8
_0-0_0
  6
CONTINUOUS
 62
    7
 10
121.01425485509264
 20
245.32761307247227
 11
121.01863453995334
 21
245.33196801335077
  0
LINE
  8
_0-0_0
  6
CONTINUOUS
 62
    7
 10
121.01863453995334
 20
245.33196801335077
 11
121.02400398410454
 21
245.33466510741738
  0
LINE
  8
_0-0_0
  6
CONTINUOUS
 62
    7
 10
121.02400398410454
 20
245.33466510741738
 11
121.03011574772354
 21
245.33563012272566
  0
LINE
  8
_0-0_0
  6
CONTINUOUS
 62
    7
 10
121.03011574772354
 20
245.33563012272566
 11
121.03674713497014
 21
245.3347640833465
  0
LINE
  8
_0-0_0
  6
CONTINUOUS
 62
    7
 10
121.03674713497014
 20
245.3347640833465
 11
121.04365070602174
 21
245.33214122122661
  0
LINE
  8
_0-0_0
  6
CONTINUOUS
 62
    7
 10
126.06410573135955
 20
241.94162179555087
 11
126.11822082056985
 21
241.90136333640811
  0
LINE
  8
_0-0_0
  6
CONTINUOUS
 62
    7
 10
126.11822082056985
 20
241.90136333640811
 11
126.16409616368634
 21
241.84088904375608
  0
LINE
  8
_0-0_0
  6
CONTINUOUS
 62
    7
 10
126.16409616368634
 20
241.84088904375608
 11
126.19475395771094
 21
241.76935419103228
  0
LINE
  8
_0-0_0
  6
CONTINUOUS
 62
    7
 10
126.19475395771094
 20
241.76935419103228
 11
126.20551758999554
 21
241.69769561839718
  0
LINE
  8
_0-0_0
  6
CONTINUOUS
 62
    7
 10
126.20551758999554
 20
241.69769561839718
 11
126.19475395771094
 21
241.63680067804671
  0
LINE
  8
_0-0_0
  6
CONTINUOUS
 62
    7
 10
126.19475395771094
 20
241.63680067804671
 11
126.16409616368634
 21
241.59592361934739
  0
LINE
  8
_0-0_0
  6
CONTINUOUS
 62
    7
 10
126.16409616368634
 20
241.59592361934739
 11
126.11822082056985
 21
241.58132466981186
  0
LINE
  8
_0-0_0
  6
CONTINUOUS
 62
    7
 10
126.11822082056985
 20
241.58132466981186
 11
126.06410573135955
 21
241.59520604386171
  0
LINE
  8
_0-0_0
  6
CONTINUOUS
 62
    7
 10
126.06410573135955
 20
241.59520604386171
 11
126.00999064214923
 21
241.63543975902206
  0
LINE
  8
_0-0_0
  6
CONTINUOUS
 62
    7
 10
126.00999064214923
 20
241.63543975902206
 11
125.96409055505043
 21
241.6959387956565
  0
LINE
  8
_0-0_0
  6
CONTINUOUS
 62
    7
 10
125.96409055505043
 20
241.6959387956565
 11
125.93343276102594
 21
241.7674489043979
  0
LINE
  8
_0-0_0
  6
CONTINUOUS
 62
    7
 10
125.93343276102594
 20
241.7674489043979
 11
125.92266912874123
 21
241.83910747703311
  0
LINE
  8
_0-0_0
  6
CONTINUOUS
 62
    7
 10
125.92266912874123
 20
241.83910747703311
 11
125.93343276102594
 21
241.90002716136587
  0
LINE
  8
_0-0_0
  6
CONTINUOUS
 62
    7
 10
125.93343276102594
 20
241.90002716136587
 11
125.96409055505043
 21
241.9408794760829
  0
LINE
  8
_0-0_0
  6
CONTINUOUS
 62
    7
 10
125.96409055505043
 20
241.9408794760829
 11
126.00999064214923
 21
241.95547842561837
  0
LINE
  8
_0-0_0
  6
CONTINUOUS
 62
    7
 10
126.00999064214923
 20
241.95547842561837
 11
126.06410573135955
 21
241.94162179555087
  0
LINE
  8
_0-0_0
  6
CONTINUOUS
 62
    7
 10
125.94409741738154
 20
241.92004504301707
 11
125.99338743005043
 21
241.90626264489629
  0
LINE
  8
_0-0_0
  6
CONTINUOUS
 62
    7
 10
125.99338743005043
 20
241.90626264489629
 11
126.04750251926075
 21
241.86600418575358
  0
LINE
  8
_0-0_0
  6
CONTINUOUS
 62
    7
 10
126.04750251926075
 20
241.86600418575358
 11
126.09337786237724
 21
241.80552989310161
  0
LINE
  8
_0-0_0
  6
CONTINUOUS
 62
    7
 10
126.09337786237724
 20
241.80552989310161
 11
126.12403565640174
 21
241.73399504037758
  0
LINE
  8
_0-0_0
  6
CONTINUOUS
 62
    7
 10
126.12403565640174
 20
241.73399504037758
 11
126.13479928868634
 21
241.66233646774259
  0
LINE
  8
_0-0_0
  6
CONTINUOUS
 62
    7
 10
126.13479928868634
 20
241.66233646774259
 11
126.12403565640174
 21
241.60144152739207
  0
LINE
  8
_0-0_0
  6
CONTINUOUS
 62
    7
 10
126.12403565640174
 20
241.60144152739207
 11
126.11339574402844
 21
241.58142364574087
  0
LINE
  8
_0-0_0
  6
CONTINUOUS
 62
    7
 10
123.04969483608924
 20
240.4301356389841
 11
123.03526909442964
 21
240.40264507468936
  0
LINE
  8
_0-0_0
  6
CONTINUOUS
 62
    7
 10
123.03526909442964
 20
240.40264507468936
 11
122.97672483239414
 21
240.34437299645879
  0
LINE
  8
_0-0_0
  6
CONTINUOUS
 62
    7
 10
122.97672483239414
 20
240.34437299645879
 11
122.88722584854705
 21
240.29693878245968
  0
LINE
  8
_0-0_0
  6
CONTINUOUS
 62
    7
 10
122.88722584854705
 20
240.29693878245968
 11
122.77424482553184
 21
240.26432621383628
  0
LINE
  8
_0-0_0
  6
CONTINUOUS
 62
    7
 10
122.77424482553184
 20
240.26432621383628
 11
122.64733294050224
 21
240.2492818726202
  0
LINE
  8
_0-0_0
  6
CONTINUOUS
 62
    7
 10
122.64733294050224
 20
240.2492818726202
 11
122.51710536184945
 21
240.2530677019065
  0
LINE
  8
_0-0_0
  6
CONTINUOUS
 62
    7
 10
122.51710536184945
 20
240.2530677019065
 11
122.39454841769825
 21
240.27538677390811
  0
LINE
  8
_0-0_0
  6
CONTINUOUS
 62
    7
 10
122.39454841769825
 20
240.27538677390811
 11
122.28990611670584
 21
240.31433380199087
  0
LINE
  8
_0-0_0
  6
CONTINUOUS
 62
    7
 10
122.28990611670584
 20
240.31433380199087
 11
122.21201206054025
 21
240.36664258049598
  0
LINE
  8
_0-0_0
  6
CONTINUOUS
 62
    7
 10
122.21201206054025
 20
240.36664258049598
 11
122.16739866051914
 21
240.4279334245627
  0
LINE
  8
_0-0_0
  6
CONTINUOUS
 62
    7
 10
122.16739866051914
 20
240.4279334245627
 11
122.16653262113994
 21
240.4301356389841
  0
LINE
  8
_0-0_0
  6
CONTINUOUS
 62
    7
 10
94.845340884970213
 20
220.3094922294614
 11
94.848062723019183
 21
220.27707761269608
  0
LINE
  8
_0-0_0
  6
CONTINUOUS
 62
    7
 10
94.848062723019183
 20
220.27707761269608
 11
94.856104517254821
 21
220.24859728911079
  0
LINE
  8
_0-0_0
  6
CONTINUOUS
 62
    7
 10
94.856104517254821
 20
220.24859728911079
 11
94.869169339889964
 21
220.2251894818896
  0
LINE
  8
_0-0_0
  6
CONTINUOUS
 62
    7
 10
94.869169339889964
 20
220.2251894818896
 11
94.886762311279327
 21
220.20774497439368
  0
LINE
  8
_0-0_0
  6
CONTINUOUS
 62
    7
 10
94.886762311279327
 20
220.20774497439368
 11
94.908190599919521
 21
220.19690711016239
  0
LINE
  8
_0-0_0
  6
CONTINUOUS
 62
    7
 10
94.908190599919521
 20
220.19690711016239
 11
94.932637654395876
 21
220.193121280876
  0
LINE
  8
_0-0_0
  6
CONTINUOUS
 62
    7
 10
94.932637654395876
 20
220.193121280876
 11
94.959163203382374
 21
220.1965359504284
  0
LINE
  8
_0-0_0
  6
CONTINUOUS
 62
    7
 10
94.959163203382374
 20
220.1965359504284
 11
94.986752743606161
 21
220.2070026549259
  0
LINE
  8
_0-0_0
  6
CONTINUOUS
 62
    7
 10
118.67483505198874
 20
238.08252557775097
 11
118.55057077306134
 21
238.03484392392932
  0
LINE
  8
_0-0_0
  6
CONTINUOUS
 62
    7
 10
118.55057077306134
 20
238.03484392392932
 11
118.40586796478433
 21
238.00487896140811
  0
LINE
  8
_0-0_0
  6
CONTINUOUS
 62
    7
 10
118.40586796478433
 20
238.00487896140811
 11
118.25057473209854
 21
237.99465969673327
  0
LINE
  8
_0-0_0
  6
CONTINUOUS
 62
    7
 10
118.25057473209854
 20
237.99465969673327
 11
118.09528149941274
 21
238.00487896140811
  0
LINE
  8
_0-0_0
  6
CONTINUOUS
 62
    7
 10
118.09528149941274
 20
238.00487896140811
 11
117.95057869113575
 21
238.03484392392932
  0
LINE
  8
_0-0_0
  6
CONTINUOUS
 62
    7
 10
117.95057869113575
 20
238.03484392392932
 11
117.82631441220833
 21
238.08252557775097
  0
LINE
  8
_0-0_0
  6
CONTINUOUS
 62
    7
 10
117.82631441220833
 20
238.08252557775097
 11
117.73095110456474
 21
238.14465771721467
  0
LINE
  8
_0-0_0
  6
CONTINUOUS
 62
    7
 10
117.73095110456474
 20
238.14465771721467
 11
117.67102117952254
 21
238.21700912135321
  0
LINE
  8
_0-0_0
  6
CONTINUOUS
 62
    7
 10
117.67102117952254
 20
238.21700912135321
 11
117.65684287768553
 21
238.25135376873499
  0
LINE
  8
_0-0_0
  6
CONTINUOUS
 62
    7
 10
101.85199536660024
 20
229.55394297903908
 11
101.82165924434514
 21
229.46783392076199
  0
LINE
  8
_0-0_0
  6
CONTINUOUS
 62
    7
 10
101.82165924434514
 20
229.46783392076199
 11
101.75522165196764
 21
229.37878032859558
  0
LINE
  8
_0-0_0
  6
CONTINUOUS
 62
    7
 10
101.75522165196764
 20
229.37878032859558
 11
101.65627046689583
 21
229.29759532278908
  0
LINE
  8
_0-0_0
  6
CONTINUOUS
 62
    7
 10
101.65627046689583
 20
229.29759532278908
 11
101.52839356655804
 21
229.22727292519608
  0
LINE
  8
_0-0_0
  6
CONTINUOUS
 62
    7
 10
101.52839356655804
 20
229.22727292519608
 11
101.37621807563744
 21
229.1702875340433
  0
LINE
  8
_0-0_0
  6
CONTINUOUS
 62
    7
 10
101.37621807563744
 20
229.1702875340433
 11
101.20521241421424
 21
229.12876713180509
  0
LINE
  8
_0-0_0
  6
CONTINUOUS
 62
    7
 10
101.20521241421424
 20
229.12876713180509
 11
101.02156257785444
 21
229.1041716134352
  0
LINE
  8
_0-0_0
  6
CONTINUOUS
 62
    7
 10
101.02156257785444
 20
229.1041716134352
 11
100.83194944176914
 21
229.09739176229488
  0
LINE
  8
_0-0_0
  6
CONTINUOUS
 62
    7
 10
100.83194944176914
 20
229.09739176229488
 11
100.64317760108084
 21
229.10867501820718
  0
LINE
  8
_0-0_0
  6
CONTINUOUS
 62
    7
 10
100.64317760108084
 20
229.10867501820718
 11
100.46210113887643
 21
229.13760073347319
  0
LINE
  8
_0-0_0
  6
CONTINUOUS
 62
    7
 10
100.46210113887643
 20
229.13760073347319
 11
100.29522772249133
 21
229.18315440482039
  0
LINE
  8
_0-0_0
  6
CONTINUOUS
 62
    7
 10
100.29522772249133
 20
229.18315440482039
 11
100.14864437156224
 21
229.24367818543678
  0
LINE
  8
_0-0_0
  6
CONTINUOUS
 62
    7
 10
97.461621105620509
 20
227.47591860456689
 11
97.337356826693167
 21
227.42823695074517
  0
LINE
  8
_0-0_0
  6
CONTINUOUS
 62
    7
 10
97.337356826693167
 20
227.42823695074517
 11
97.19265401841615
 21
227.398271988224
  0
LINE
  8
_0-0_0
  6
CONTINUOUS
 62
    7
 10
97.19265401841615
 20
227.398271988224
 11
97.037360785730314
 21
227.38805272354918
  0
LINE
  8
_0-0_0
  6
CONTINUOUS
 62
    7
 10
97.037360785730314
 20
227.38805272354918
 11
96.882067553044521
 21
227.398271988224
  0
LINE
  8
_0-0_0
  6
CONTINUOUS
 62
    7
 10
96.882067553044521
 20
227.398271988224
 11
96.73736474476749
 21
227.42823695074517
  0
LINE
  8
_0-0_0
  6
CONTINUOUS
 62
    7
 10
96.73736474476749
 20
227.42823695074517
 11
96.613100465840105
 21
227.47591860456689
  0
LINE
  8
_0-0_0
  6
CONTINUOUS
 62
    7
 10
96.613100465840105
 20
227.47591860456689
 11
96.517737158196553
 21
227.53805074403058
  0
LINE
  8
_0-0_0
  6
CONTINUOUS
 62
    7
 10
96.517737158196553
 20
227.53805074403058
 11
96.457807233154327
 21
227.6104021481691
  0
LINE
  8
_0-0_0
  6
CONTINUOUS
 62
    7
 10
96.457807233154327
 20
227.6104021481691
 11
96.443653675299586
 21
227.6447467955509
  0
LINE
  8
_0-0_0
  6
CONTINUOUS
 62
    7
 10
91.875493901756528
 20
219.31955973104488
 11
91.832142444830836
 21
219.35199909179238
  0
LINE
  8
_0-0_0
  6
CONTINUOUS
 62
    7
 10
91.832142444830836
 20
219.35199909179238
 11
91.816900151756528
 21
219.39025328837178
  0
LINE
  8
_0-0_0
  6
CONTINUOUS
 62
    7
 10
91.816900151756528
 20
219.39025328837178
 11
91.832142444830836
 21
219.42853222893339
  0
LINE
  8
_0-0_0
  6
CONTINUOUS
 62
    7
 10
91.832142444830836
 20
219.42853222893339
 11
91.875493901756528
 21
219.4609715896809
  0
LINE
  8
_0-0_0
  6
CONTINUOUS
 62
    7
 10
91.875493901756528
 20
219.4609715896809
 11
91.940372623251434
 21
219.48264731814379
  0
LINE
  8
_0-0_0
  6
CONTINUOUS
 62
    7
 10
91.940372623251434
 20
219.48264731814379
 11
92.016905760392476
 21
219.4902684646809
  0
LINE
  8
_0-0_0
  6
CONTINUOUS
 62
    7
 10
92.016905760392476
 20
219.4902684646809
 11
92.093438897533545
 21
219.48264731814379
  0
LINE
  8
_0-0_0
  6
CONTINUOUS
 62
    7
 10
92.093438897533545
 20
219.48264731814379
 11
92.158317619028466
 21
219.4609715896809
  0
LINE
  8
_0-0_0
  6
CONTINUOUS
 62
    7
 10
92.158317619028466
 20
219.4609715896809
 11
92.201693819936409
 21
219.42853222893339
  0
LINE
  8
_0-0_0
  6
CONTINUOUS
 62
    7
 10
92.201693819936409
 20
219.42853222893339
 11
92.216911369028466
 21
219.39025328837178
  0
LINE
  8
_0-0_0
  6
CONTINUOUS
 62
    7
 10
92.216911369028466
 20
219.39025328837178
 11
92.201693819936409
 21
219.35199909179238
  0
LINE
  8
_0-0_0
  6
CONTINUOUS
 62
    7
 10
92.201693819936409
 20
219.35199909179238
 11
92.158317619028466
 21
219.31955973104488
  0
LINE
  8
_0-0_0
  6
CONTINUOUS
 62
    7
 10
92.158317619028466
 20
219.31955973104488
 11
92.093438897533545
 21
219.29788400258209
  0
LINE
  8
_0-0_0
  6
CONTINUOUS
 62
    7
 10
92.093438897533545
 20
219.29788400258209
 11
92.016905760392476
 21
219.29026285604499
  0
LINE
  8
_0-0_0
  6
CONTINUOUS
 62
    7
 10
92.016905760392476
 20
219.29026285604499
 11
91.940372623251434
 21
219.29788400258209
  0
LINE
  8
_0-0_0
  6
CONTINUOUS
 62
    7
 10
91.940372623251434
 20
219.29788400258209
 11
91.875493901756528
 21
219.31955973104488
  0
LINE
  8
_0-0_0
  6
CONTINUOUS
 62
    7
 10
81.62242894715348
 20
224.72891592561848
 11
81.665780404079158
 21
224.69647656487098
  0
LINE
  8
_0-0_0
  6
CONTINUOUS
 62
    7
 10
81.665780404079158
 20
224.69647656487098
 11
81.68102269715348
 21
224.65819762430928
  0
LINE
  8
_0-0_0
  6
CONTINUOUS
 62
    7
 10
81.68102269715348
 20
224.65819762430928
 11
81.665780404079158
 21
224.61994342772988
  0
LINE
  8
_0-0_0
  6
CONTINUOUS
 62
    7
 10
81.665780404079158
 20
224.61994342772988
 11
81.62242894715348
 21
224.58750406698249
  0
LINE
  8
_0-0_0
  6
CONTINUOUS
 62
    7
 10
81.62242894715348
 20
224.58750406698249
 11
81.557550225658531
 21
224.56582833851968
  0
LINE
  8
_0-0_0
  6
CONTINUOUS
 62
    7
 10
81.557550225658531
 20
224.56582833851968
 11
81.48101708851749
 21
224.55820719198249
  0
LINE
  8
_0-0_0
  6
CONTINUOUS
 62
    7
 10
81.48101708851749
 20
224.55820719198249
 11
81.404483951376449
 21
224.56582833851968
  0
LINE
  8
_0-0_0
  6
CONTINUOUS
 62
    7
 10
81.404483951376449
 20
224.56582833851968
 11
81.339605229881499
 21
224.58750406698249
  0
LINE
  8
_0-0_0
  6
CONTINUOUS
 62
    7
 10
81.339605229881499
 20
224.58750406698249
 11
81.296229028973585
 21
224.61994342772988
  0
LINE
  8
_0-0_0
  6
CONTINUOUS
 62
    7
 10
81.296229028973585
 20
224.61994342772988
 11
81.281011479881499
 21
224.65819762430928
  0
LINE
  8
_0-0_0
  6
CONTINUOUS
 62
    7
 10
81.281011479881499
 20
224.65819762430928
 11
81.296229028973585
 21
224.69647656487098
  0
LINE
  8
_0-0_0
  6
CONTINUOUS
 62
    7
 10
81.296229028973585
 20
224.69647656487098
 11
81.339605229881499
 21
224.72891592561848
  0
LINE
  8
_0-0_0
  6
CONTINUOUS
 62
    7
 10
81.339605229881499
 20
224.72891592561848
 11
81.404483951376449
 21
224.75059165408118
  0
LINE
  8
_0-0_0
  6
CONTINUOUS
 62
    7
 10
81.404483951376449
 20
224.75059165408118
 11
81.48101708851749
 21
224.7582128006184
  0
LINE
  8
_0-0_0
  6
CONTINUOUS
 62
    7
 10
81.48101708851749
 20
224.7582128006184
 11
81.557550225658531
 21
224.75059165408118
  0
LINE
  8
_0-0_0
  6
CONTINUOUS
 62
    7
 10
81.557550225658531
 20
224.75059165408118
 11
81.62242894715348
 21
224.72891592561848
  0
LINE
  8
_0-0_0
  6
CONTINUOUS
 62
    7
 10
89.860220266304637
 20
223.83966669103228
 11
89.806105177094338
 21
223.85354806508209
  0
LINE
  8
_0-0_0
  6
CONTINUOUS
 62
    7
 10
89.806105177094338
 20
223.85354806508209
 11
89.760229833977803
 21
223.8389491155466
  0
LINE
  8
_0-0_0
  6
CONTINUOUS
 62
    7
 10
89.760229833977803
 20
223.8389491155466
 11
89.729572039953297
 21
223.79807205684727
  0
LINE
  8
_0-0_0
  6
CONTINUOUS
 62
    7
 10
89.729572039953297
 20
223.79807205684727
 11
89.718808407668661
 21
223.73717711649678
  0
LINE
  8
_0-0_0
  6
CONTINUOUS
 62
    7
 10
89.718808407668661
 20
223.73717711649678
 11
89.729572039953297
 21
223.66551854386168
  0
LINE
  8
_0-0_0
  6
CONTINUOUS
 62
    7
 10
89.729572039953297
 20
223.66551854386168
 11
89.760229833977803
 21
223.59400843512009
  0
LINE
  8
_0-0_0
  6
CONTINUOUS
 62
    7
 10
89.760229833977803
 20
223.59400843512009
 11
89.806105177094338
 21
223.53350939848579
  0
LINE
  8
_0-0_0
  6
CONTINUOUS
 62
    7
 10
89.806105177094338
 20
223.53350939848579
 11
89.860220266304637
 21
223.49327568332538
  0
LINE
  8
_0-0_0
  6
CONTINUOUS
 62
    7
 10
89.860220266304637
 20
223.49327568332538
 11
89.914360099497216
 21
223.47939430927548
  0
LINE
  8
_0-0_0
  6
CONTINUOUS
 62
    7
 10
89.914360099497216
 20
223.47939430927548
 11
89.960235442613794
 21
223.49399325881109
  0
LINE
  8
_0-0_0
  6
CONTINUOUS
 62
    7
 10
89.960235442613794
 20
223.49399325881109
 11
89.990893236638243
 21
223.53487031751038
  0
LINE
  8
_0-0_0
  6
CONTINUOUS
 62
    7
 10
89.990893236638243
 20
223.53487031751038
 11
90.001656868922893
 21
223.59576525786079
  0
LINE
  8
_0-0_0
  6
CONTINUOUS
 62
    7
 10
90.001656868922893
 20
223.59576525786079
 11
89.990893236638243
 21
223.66742383049598
  0
LINE
  8
_0-0_0
  6
CONTINUOUS
 62
    7
 10
89.990893236638243
 20
223.66742383049598
 11
89.960235442613794
 21
223.73895868321978
  0
LINE
  8
_0-0_0
  6
CONTINUOUS
 62
    7
 10
89.960235442613794
 20
223.73895868321978
 11
89.914360099497216
 21
223.79943297587178
  0
LINE
  8
_0-0_0
  6
CONTINUOUS
 62
    7
 10
89.914360099497216
 20
223.79943297587178
 11
89.860220266304637
 21
223.83966669103228
  0
LINE
  8
_0-0_0
  6
CONTINUOUS
 62
    7
 10
89.435959946414485
 20
224.11895201884059
 11
89.442863517465966
 21
224.12157488096048
  0
LINE
  8
_0-0_0
  6
CONTINUOUS
 62
    7
 10
89.442863517465966
 20
224.12157488096048
 11
89.449494904712594
 21
224.12241617635749
  0
LINE
  8
_0-0_0
  6
CONTINUOUS
 62
    7
 10
89.449494904712594
 20
224.12241617635749
 11
89.455606668331697
 21
224.12147590503139
  0
LINE
  8
_0-0_0
  6
CONTINUOUS
 62
    7
 10
89.455606668331697
 20
224.12147590503139
 11
89.460976112482868
 21
224.11875406698249
  0
LINE
  8
_0-0_0
  6
CONTINUOUS
 62
    7
 10
89.460976112482868
 20
224.11875406698249
 11
89.465355797343491
 21
224.11439912610399
  0
LINE
  8
_0-0_0
  6
CONTINUOUS
 62
    7
 10
89.465355797343491
 20
224.11439912610399
 11
89.468622003002295
 21
224.10855954628988
  0
LINE
  8
_0-0_0
  6
CONTINUOUS
 62
    7
 10
89.468622003002295
 20
224.10855954628988
 11
89.470651009547893
 21
224.10143327939798
  0
LINE
  8
_0-0_0
  6
CONTINUOUS
 62
    7
 10
89.470651009547893
 20
224.10143327939798
 11
89.471319097069028
 21
224.09331725321559
  0
LINE
  8
_0-0_0
  6
CONTINUOUS
 62
    7
 10
89.542037398378156
 20
224.17197837283118
 11
89.54067647935365
 21
224.18818568121389
  0
LINE
  8
_0-0_0
  6
CONTINUOUS
 62
    7
 10
89.54067647935365
 20
224.18818568121389
 11
89.536643210244677
 21
224.20243821499758
  0
LINE
  8
_0-0_0
  6
CONTINUOUS
 62
    7
 10
89.536643210244677
 20
224.20243821499758
 11
89.530110798927097
 21
224.21414211860838
  0
LINE
  8
_0-0_0
  6
CONTINUOUS
 62
    7
 10
89.530110798927097
 20
224.21414211860838
 11
89.521326685223571
 21
224.22285200036509
  0
LINE
  8
_0-0_0
  6
CONTINUOUS
 62
    7
 10
89.521326685223571
 20
224.22285200036509
 11
89.510612540903466
 21
224.2282709324808
  0
LINE
  8
_0-0_0
  6
CONTINUOUS
 62
    7
 10
89.510612540903466
 20
224.2282709324808
 11
89.498389013665303
 21
224.23017621911509
  0
LINE
  8
_0-0_0
  6
CONTINUOUS
 62
    7
 10
89.498389013665303
 20
224.23017621911509
 11
89.485126239172047
 21
224.22846888433889
  0
LINE
  8
_0-0_0
  6
CONTINUOUS
 62
    7
 10
89.485126239172047
 20
224.22846888433889
 11
89.471319097069028
 21
224.223223160099
  0
LINE
  8
_0-0_0
  6
CONTINUOUS
 62
    7
 10
89.740211952326632
 20
223.8181146824808
 11
89.789526708977803
 21
223.80433228435999
  0
LINE
  8
_0-0_0
  6
CONTINUOUS
 62
    7
 10
89.789526708977803
 20
223.80433228435999
 11
89.843641798188088
 21
223.76407382521728
  0
LINE
  8
_0-0_0
  6
CONTINUOUS
 62
    7
 10
89.843641798188088
 20
223.76407382521728
 11
89.889517141304637
 21
223.70359953256528
  0
LINE
  8
_0-0_0
  6
CONTINUOUS
 62
    7
 10
89.889517141304637
 20
223.70359953256528
 11
89.920174935329143
 21
223.63206467984139
  0
LINE
  8
_0-0_0
  6
CONTINUOUS
 62
    7
 10
89.920174935329143
 20
223.63206467984139
 11
89.930938567613794
 21
223.56040610720618
  0
LINE
  8
_0-0_0
  6
CONTINUOUS
 62
    7
 10
89.930938567613794
 20
223.56040610720618
 11
89.920174935329143
 21
223.4995111668558
  0
LINE
  8
_0-0_0
  6
CONTINUOUS
 62
    7
 10
89.920174935329143
 20
223.4995111668558
 11
89.909535022955836
 21
223.47949328520448
  0
LINE
  8
_0-0_0
  6
CONTINUOUS
 62
    7
 10
124.19026869852594
 20
227.41890846943178
 11
124.08176633630043
 21
227.46005771193597
  0
LINE
  8
_0-0_0
  6
CONTINUOUS
 62
    7
 10
124.08176633630043
 20
227.46005771193597
 11
123.95510189109353
 21
227.48502439003988
  0
LINE
  8
_0-0_0
  6
CONTINUOUS
 62
    7
 10
123.95510189109353
 20
227.48502439003988
 11
123.81965333218304
 21
227.49197744905598
  0
LINE
  8
_0-0_0
  6
CONTINUOUS
 62
    7
 10
123.81965333218304
 20
227.49197744905598
 11
123.68546671636794
 21
227.48042200933889
  0
LINE
  8
_0-0_0
  6
CONTINUOUS
 62
    7
 10
123.68546671636794
 20
227.48042200933889
 11
123.56248912451834
 21
227.4511746223034
  0
LINE
  8
_0-0_0
  6
CONTINUOUS
 62
    7
 10
123.56248912451834
 20
227.4511746223034
 11
123.45985108608924
 21
227.40643750237098
  0
LINE
  8
_0-0_0
  6
CONTINUOUS
 62
    7
 10
123.45985108608924
 20
227.40643750237098
 11
123.38517374761794
 21
227.34950159918267
  0
LINE
  8
_0-0_0
  6
CONTINUOUS
 62
    7
 10
123.38517374761794
 20
227.34950159918267
 11
123.34397501714923
 21
227.2846228776877
  0
LINE
  8
_0-0_0
  6
CONTINUOUS
 62
    7
 10
123.34397501714923
 20
227.2846228776877
 11
123.33932314848374
 21
227.21657692646298
  0
LINE
  8
_0-0_0
  6
CONTINUOUS
 62
    7
 10
123.33932314848374
 20
227.21657692646298
 11
123.37156455737303
 21
227.15041151789038
  0
LINE
  8
_0-0_0
  6
CONTINUOUS
 62
    7
 10
123.37156455737303
 20
227.15041151789038
 11
123.43829907753774
 21
227.09107544842249
  0
LINE
  8
_0-0_0
  6
CONTINUOUS
 62
    7
 10
123.43829907753774
 20
227.09107544842249
 11
123.53460265650735
 21
227.0429236589377
  0
LINE
  8
_0-0_0
  6
CONTINUOUS
 62
    7
 10
123.53460265650735
 20
227.0429236589377
 11
123.65327479544314
 21
227.0095687708465
  0
LINE
  8
_0-0_0
  6
CONTINUOUS
 62
    7
 10
123.65327479544314
 20
227.0095687708465
 11
123.78558086860615
 21
226.99343569441069
  0
LINE
  8
_0-0_0
  6
CONTINUOUS
 62
    7
 10
123.78558086860615
 20
226.99343569441069
 11
123.92167277105544
 21
226.9957616287434
  0
LINE
  8
_0-0_0
  6
CONTINUOUS
 62
    7
 10
123.92167277105544
 20
226.9957616287434
 11
124.05145495802763
 21
227.01637336596897
  0
LINE
  8
_0-0_0
  6
CONTINUOUS
 62
    7
 10
124.05145495802763
 20
227.01637336596897
 11
124.16530202042205
 21
227.0537120352046
  0
LINE
  8
_0-0_0
  6
CONTINUOUS
 62
    7
 10
124.16530202042205
 20
227.0537120352046
 11
124.25480100426914
 21
227.1050310544191
  0
LINE
  8
_0-0_0
  6
CONTINUOUS
 62
    7
 10
124.25480100426914
 20
227.1050310544191
 11
124.31329577834003
 21
227.16649510636168
  0
LINE
  8
_0-0_0
  6
CONTINUOUS
 62
    7
 10
124.31329577834003
 20
227.16649510636168
 11
124.33643140175654
 21
227.23360078626038
  0
LINE
  8
_0-0_0
  6
CONTINUOUS
 62
    7
 10
124.33643140175654
 20
227.23360078626038
 11
124.32250053974214
 21
227.30132506571559
  0
LINE
  8
_0-0_0
  6
CONTINUOUS
 62
    7
 10
124.32250053974214
 20
227.30132506571559
 11
124.27254243955204
 21
227.36466966031008
  0
LINE
  8
_0-0_0
  6
CONTINUOUS
 62
    7
 10
124.27254243955204
 20
227.36466966031008
 11
124.19026869852594
 21
227.41890846943178
  0
LINE
  8
_0-0_0
  6
CONTINUOUS
 62
    7
 10
91.663363741811409
 20
200.65490172587178
 11
91.771841360054637
 21
200.61377722734989
  0
LINE
  8
_0-0_0
  6
CONTINUOUS
 62
    7
 10
91.771841360054637
 20
200.61377722734989
 11
91.898530549243844
 21
200.58878580526368
  0
LINE
  8
_0-0_0
  6
CONTINUOUS
 62
    7
 10
91.898530549243844
 20
200.58878580526368
 11
92.033979108154327
 21
200.58183274624758
  0
LINE
  8
_0-0_0
  6
CONTINUOUS
 62
    7
 10
92.033979108154327
 20
200.58183274624758
 11
92.168165723969366
 21
200.59341292994699
  0
LINE
  8
_0-0_0
  6
CONTINUOUS
 62
    7
 10
92.168165723969366
 20
200.59341292994699
 11
92.291143315819014
 21
200.6226355730002
  0
LINE
  8
_0-0_0
  6
CONTINUOUS
 62
    7
 10
92.291143315819014
 20
200.6226355730002
 11
92.393756610265797
 21
200.66739743691488
  0
LINE
  8
_0-0_0
  6
CONTINUOUS
 62
    7
 10
92.393756610265797
 20
200.66739743691488
 11
92.468433948737086
 21
200.72430859612098
  0
LINE
  8
_0-0_0
  6
CONTINUOUS
 62
    7
 10
92.468433948737086
 20
200.72430859612098
 11
92.509632679205836
 21
200.78921206159819
  0
LINE
  8
_0-0_0
  6
CONTINUOUS
 62
    7
 10
92.509632679205836
 20
200.78921206159819
 11
92.514284547871384
 21
200.8572580128228
  0
LINE
  8
_0-0_0
  6
CONTINUOUS
 62
    7
 10
92.514284547871384
 20
200.8572580128228
 11
92.482043138982021
 21
200.92339867741319
  0
LINE
  8
_0-0_0
  6
CONTINUOUS
 62
    7
 10
92.482043138982021
 20
200.92339867741319
 11
92.415308618817321
 21
200.9827594908634
  0
LINE
  8
_0-0_0
  6
CONTINUOUS
 62
    7
 10
92.415308618817321
 20
200.9827594908634
 11
92.319029783830004
 21
201.0308865363659
  0
LINE
  8
_0-0_0
  6
CONTINUOUS
 62
    7
 10
92.319029783830004
 20
201.0308865363659
 11
92.200332900911917
 21
201.06426616843927
  0
LINE
  8
_0-0_0
  6
CONTINUOUS
 62
    7
 10
92.200332900911917
 20
201.06426616843927
 11
92.068026827748909
 21
201.0803745008929
  0
LINE
  8
_0-0_0
  6
CONTINUOUS
 62
    7
 10
92.068026827748909
 20
201.0803745008929
 11
91.931959669281838
 21
201.07804856656008
  0
LINE
  8
_0-0_0
  6
CONTINUOUS
 62
    7
 10
91.931959669281838
 20
201.07804856656008
 11
91.802152738327464
 21
201.05746157331689
  0
LINE
  8
_0-0_0
  6
CONTINUOUS
 62
    7
 10
91.802152738327464
 20
201.05746157331689
 11
91.688305675933023
 21
201.02012290408118
  0
LINE
  8
_0-0_0
  6
CONTINUOUS
 62
    7
 10
91.688305675933023
 20
201.02012290408118
 11
91.598806692085887
 21
200.96880388486679
  0
LINE
  8
_0-0_0
  6
CONTINUOUS
 62
    7
 10
91.598806692085887
 20
200.96880388486679
 11
91.540336661997245
 21
200.90731508894189
  0
LINE
  8
_0-0_0
  6
CONTINUOUS
 62
    7
 10
91.540336661997245
 20
200.90731508894189
 11
91.517201038580836
 21
200.84023415302548
  0
LINE
  8
_0-0_0
  6
CONTINUOUS
 62
    7
 10
91.517201038580836
 20
200.84023415302548
 11
91.531131900595213
 21
200.7725098735703
  0
LINE
  8
_0-0_0
  6
CONTINUOUS
 62
    7
 10
91.531131900595213
 20
200.7725098735703
 11
91.581065256802944
 21
200.70916527897569
  0
LINE
  8
_0-0_0
  6
CONTINUOUS
 62
    7
 10
91.581065256802944
 20
200.70916527897569
 11
91.663363741811409
 21
200.65490172587178
  0
LINE
  8
_0-0_0
  6
CONTINUOUS
 62
    7
 10
132.25128900838655
 20
222.02721947819438
 11
132.26371048748285
 21
222.01964781962178
  0
LINE
  8
_0-0_0
  6
CONTINUOUS
 62
    7
 10
132.26371048748285
 20
222.01964781962178
 11
132.27296473684945
 21
222.0109874258296
  0
LINE
  8
_0-0_0
  6
CONTINUOUS
 62
    7
 10
132.27296473684945
 20
222.0109874258296
 11
132.27865585277004
 21
222.00160945655168
  0
LINE
  8
_0-0_0
  6
CONTINUOUS
 62
    7
 10
132.27865585277004
 20
222.00160945655168
 11
132.28056113940423
 21
221.99186032753988
  0
LINE
  8
_0-0_0
  6
CONTINUOUS
 62
    7
 10
132.28056113940423
 20
221.99186032753988
 11
132.27865585277004
 21
221.98211119852809
  0
LINE
  8
_0-0_0
  6
CONTINUOUS
 62
    7
 10
132.27865585277004
 20
221.98211119852809
 11
132.27296473684945
 21
221.9727332292502
  0
LINE
  8
_0-0_0
  6
CONTINUOUS
 62
    7
 10
132.27296473684945
 20
221.9727332292502
 11
132.26371048748285
 21
221.96409757944028
  0
LINE
  8
_0-0_0
  6
CONTINUOUS
 62
    7
 10
132.26371048748285
 20
221.96409757944028
 11
132.25128900838655
 21
221.9565011768853
  0
LINE
  8
_0-0_0
  6
CONTINUOUS
 62
    7
 10
134.69079821974634
 20
222.1686313368304
 11
134.77307196077254
 21
222.11439252770879
  0
LINE
  8
_0-0_0
  6
CONTINUOUS
 62
    7
 10
134.77307196077254
 20
222.11439252770879
 11
134.82303006096254
 21
222.05104793311418
  0
LINE
  8
_0-0_0
  6
CONTINUOUS
 62
    7
 10
134.82303006096254
 20
222.05104793311418
 11
134.83696092297694
 21
221.98332365365889
  0
LINE
  8
_0-0_0
  6
CONTINUOUS
 62
    7
 10
134.83696092297694
 20
221.98332365365889
 11
134.81382529956053
 21
221.91624271774259
  0
LINE
  8
_0-0_0
  6
CONTINUOUS
 62
    7
 10
134.81382529956053
 20
221.91624271774259
 11
134.75533052548963
 21
221.85475392181777
  0
LINE
  8
_0-0_0
  6
CONTINUOUS
 62
    7
 10
134.75533052548963
 20
221.85475392181777
 11
134.66585628562473
 21
221.80343490260319
  0
LINE
  8
_0-0_0
  6
CONTINUOUS
 62
    7
 10
134.66585628562473
 20
221.80343490260319
 11
134.55198447924803
 21
221.76609623336759
  0
LINE
  8
_0-0_0
  6
CONTINUOUS
 62
    7
 10
134.55198447924803
 20
221.76609623336759
 11
134.42220229227593
 21
221.74550924012439
  0
LINE
  8
_0-0_0
  6
CONTINUOUS
 62
    7
 10
134.42220229227593
 20
221.74550924012439
 11
134.28611038982663
 21
221.74318330579158
  0
LINE
  8
_0-0_0
  6
CONTINUOUS
 62
    7
 10
134.28611038982663
 20
221.74318330579158
 11
134.15382906064585
 21
221.75929163824517
  0
LINE
  8
_0-0_0
  6
CONTINUOUS
 62
    7
 10
134.15382906064585
 20
221.75929163824517
 11
134.03513217772775
 21
221.79267127031858
  0
LINE
  8
_0-0_0
  6
CONTINUOUS
 62
    7
 10
134.03513217772775
 20
221.79267127031858
 11
133.93885334274043
 21
221.84079831582119
  0
LINE
  8
_0-0_0
  6
CONTINUOUS
 62
    7
 10
133.93885334274043
 20
221.84079831582119
 11
133.87211882257574
 21
221.90015912927129
  0
LINE
  8
_0-0_0
  6
CONTINUOUS
 62
    7
 10
133.87211882257574
 20
221.90015912927129
 11
133.83987741368645
 21
221.96629979386168
  0
LINE
  8
_0-0_0
  6
CONTINUOUS
 62
    7
 10
133.83987741368645
 20
221.96629979386168
 11
133.84452928235194
 21
222.0343457450864
  0
LINE
  8
_0-0_0
  6
CONTINUOUS
 62
    7
 10
133.84452928235194
 20
222.0343457450864
 11
133.88570326883843
 21
222.09922446658118
  0
LINE
  8
_0-0_0
  6
CONTINUOUS
 62
    7
 10
133.88570326883843
 20
222.09922446658118
 11
133.96038060730973
 21
222.15616036976968
  0
LINE
  8
_0-0_0
  6
CONTINUOUS
 62
    7
 10
133.96038060730973
 20
222.15616036976968
 11
134.06301864573874
 21
222.20092223368428
  0
LINE
  8
_0-0_0
  6
CONTINUOUS
 62
    7
 10
134.06301864573874
 20
222.20092223368428
 11
134.18599623758843
 21
222.23014487673748
  0
LINE
  8
_0-0_0
  6
CONTINUOUS
 62
    7
 10
134.18599623758843
 20
222.23014487673748
 11
134.32018285340345
 21
222.24172506043678
  0
LINE
  8
_0-0_0
  6
CONTINUOUS
 62
    7
 10
134.32018285340345
 20
222.24172506043678
 11
134.45563141231395
 21
222.2347472574385
  0
LINE
  8
_0-0_0
  6
CONTINUOUS
 62
    7
 10
134.45563141231395
 20
222.2347472574385
 11
134.58229585752085
 21
222.20978057933459
  0
LINE
  8
_0-0_0
  6
CONTINUOUS
 62
    7
 10
134.58229585752085
 20
222.20978057933459
 11
134.69079821974634
 21
222.1686313368304
  0
LINE
  8
_0-0_0
  6
CONTINUOUS
 62
    7
 10
83.602343431950786
 20
206.04661546109139
 11
83.589897208872216
 21
206.05418711966408
  0
LINE
  8
_0-0_0
  6
CONTINUOUS
 62
    7
 10
83.589897208872216
 20
206.05418711966408
 11
83.580667703487933
 21
206.062822769474
  0
LINE
  8
_0-0_0
  6
CONTINUOUS
 62
    7
 10
83.580667703487933
 20
206.062822769474
 11
83.574976587567321
 21
206.07220073875189
  0
LINE
  8
_0-0_0
  6
CONTINUOUS
 62
    7
 10
83.574976587567321
 20
206.07220073875189
 11
83.573046556950786
 21
206.08197461174598
  0
LINE
  8
_0-0_0
  6
CONTINUOUS
 62
    7
 10
83.573046556950786
 20
206.08197461174598
 11
83.574976587567321
 21
206.0917237407578
  0
LINE
  8
_0-0_0
  6
CONTINUOUS
 62
    7
 10
83.574976587567321
 20
206.0917237407578
 11
83.580667703487933
 21
206.10110171003569
  0
LINE
  8
_0-0_0
  6
CONTINUOUS
 62
    7
 10
83.580667703487933
 20
206.10110171003569
 11
83.589897208872216
 21
206.10973735984558
  0
LINE
  8
_0-0_0
  6
CONTINUOUS
 62
    7
 10
83.589897208872216
 20
206.10973735984558
 11
83.602343431950786
 21
206.1173090184183
  0
LINE
  8
_0-0_0
  6
CONTINUOUS
 62
    7
 10
81.162809476608714
 20
205.90517885847319
 11
81.080535735582544
 21
205.9594424115771
  0
LINE
  8
_0-0_0
  6
CONTINUOUS
 62
    7
 10
81.080535735582544
 20
205.9594424115771
 11
81.03057763539249
 21
206.02276226218927
  0
LINE
  8
_0-0_0
  6
CONTINUOUS
 62
    7
 10
81.03057763539249
 20
206.02276226218927
 11
81.016671517360408
 21
206.09048654164468
  0
LINE
  8
_0-0_0
  6
CONTINUOUS
 62
    7
 10
81.016671517360408
 20
206.09048654164468
 11
81.039807140776759
 21
206.15759222154318
  0
LINE
  8
_0-0_0
  6
CONTINUOUS
 62
    7
 10
81.039807140776759
 20
206.15759222154318
 11
81.098277170865458
 21
206.21908101746808
  0
LINE
  8
_0-0_0
  6
CONTINUOUS
 62
    7
 10
81.098277170865458
 20
206.21908101746808
 11
81.187776154712594
 21
206.27040003668267
  0
LINE
  8
_0-0_0
  6
CONTINUOUS
 62
    7
 10
81.187776154712594
 20
206.27040003668267
 11
81.301623217107021
 21
206.30773870591818
  0
LINE
  8
_0-0_0
  6
CONTINUOUS
 62
    7
 10
81.301623217107021
 20
206.30773870591818
 11
81.431405404079158
 21
206.3283256991615
  0
LINE
  8
_0-0_0
  6
CONTINUOUS
 62
    7
 10
81.431405404079158
 20
206.3283256991615
 11
81.56749730652848
 21
206.33065163349428
  0
LINE
  8
_0-0_0
  6
CONTINUOUS
 62
    7
 10
81.56749730652848
 20
206.33065163349428
 11
81.699803379691446
 21
206.3145433010408
  0
LINE
  8
_0-0_0
  6
CONTINUOUS
 62
    7
 10
81.699803379691446
 20
206.3145433010408
 11
81.818500262609604
 21
206.28116366896728
  0
LINE
  8
_0-0_0
  6
CONTINUOUS
 62
    7
 10
81.818500262609604
 20
206.28116366896728
 11
81.91477909759692
 21
206.23301187948249
  0
LINE
  8
_0-0_0
  6
CONTINUOUS
 62
    7
 10
81.91477909759692
 20
206.23301187948249
 11
81.981513617761578
 21
206.1736758100146
  0
LINE
  8
_0-0_0
  6
CONTINUOUS
 62
    7
 10
81.981513617761578
 20
206.1736758100146
 11
82.013755026650927
 21
206.10753514542409
  0
LINE
  8
_0-0_0
  6
CONTINUOUS
 62
    7
 10
82.013755026650927
 20
206.10753514542409
 11
82.009103157985365
 21
206.03948919419949
  0
LINE
  8
_0-0_0
  6
CONTINUOUS
 62
    7
 10
82.009103157985365
 20
206.03948919419949
 11
81.967904427516658
 21
205.97458572872227
  0
LINE
  8
_0-0_0
  6
CONTINUOUS
 62
    7
 10
81.967904427516658
 20
205.97458572872227
 11
81.893227089045354
 21
205.917649825534
  0
LINE
  8
_0-0_0
  6
CONTINUOUS
 62
    7
 10
81.893227089045354
 20
205.917649825534
 11
81.790589050616347
 21
205.87291270560158
  0
LINE
  8
_0-0_0
  6
CONTINUOUS
 62
    7
 10
81.790589050616347
 20
205.87291270560158
 11
81.667636202748895
 21
205.84366531856608
  0
LINE
  8
_0-0_0
  6
CONTINUOUS
 62
    7
 10
81.667636202748895
 20
205.84366531856608
 11
81.533449586933898
 21
205.832109878849
  0
LINE
  8
_0-0_0
  6
CONTINUOUS
 62
    7
 10
81.533449586933898
 20
205.832109878849
 11
81.398001028023373
 21
205.83906293786509
  0
LINE
  8
_0-0_0
  6
CONTINUOUS
 62
    7
 10
81.398001028023373
 20
205.83906293786509
 11
81.271311838834208
 21
205.86405435995118
  0
LINE
  8
_0-0_0
  6
CONTINUOUS
 62
    7
 10
81.271311838834208
 20
205.86405435995118
 11
81.162809476608714
 21
205.90517885847319
  0
LINE
  8
_0-0_0
  6
CONTINUOUS
 62
    7
 10
124.28669599740684
 20
227.28734471573668
 11
124.28555777422274
 21
227.2693805846134
  0
LINE
  8
_0-0_0
  6
CONTINUOUS
 62
    7
 10
124.28555777422274
 20
227.2693805846134
 11
124.25833939373284
 21
227.20680305346889
  0
LINE
  8
_0-0_0
  6
CONTINUOUS
 62
    7
 10
124.25833939373284
 20
227.20680305346889
 11
124.19694957373704
 21
227.15058472576629
  0
LINE
  8
_0-0_0
  6
CONTINUOUS
 62
    7
 10
124.19694957373704
 20
227.15058472576629
 11
124.10638659865263
 21
227.105303238224
  0
LINE
  8
_0-0_0
  6
CONTINUOUS
 62
    7
 10
124.10638659865263
 20
227.105303238224
 11
123.99397468722944
 21
227.07462070021728
  0
LINE
  8
_0-0_0
  6
CONTINUOUS
 62
    7
 10
123.99397468722944
 20
227.07462070021728
 11
123.86881962494064
 21
227.06101150997227
  0
LINE
  8
_0-0_0
  6
CONTINUOUS
 62
    7
 10
123.86881962494064
 20
227.06101150997227
 11
123.74106644451405
 21
227.06556440270879
  0
LINE
  8
_0-0_0
  6
CONTINUOUS
 62
    7
 10
123.74106644451405
 20
227.06556440270879
 11
123.62105813053604
 21
227.08795770665728
  0
LINE
  8
_0-0_0
  6
CONTINUOUS
 62
    7
 10
123.62105813053604
 20
227.08795770665728
 11
123.51851906803604
 21
227.12633562314798
  0
LINE
  8
_0-0_0
  6
CONTINUOUS
 62
    7
 10
123.51851906803604
 20
227.12633562314798
 11
123.44176323505464
 21
227.17760515439798
  0
LINE
  8
_0-0_0
  6
CONTINUOUS
 62
    7
 10
123.44176323505464
 20
227.17760515439798
 11
123.39700137113994
 21
227.23760931138708
  0
LINE
  8
_0-0_0
  6
CONTINUOUS
 62
    7
 10
123.39700137113994
 20
227.23760931138708
 11
123.38670787451834
 21
227.28543942910238
  0
LINE
  8
_0-0_0
  6
CONTINUOUS
 62
    7
 10
92.466677125996384
 20
200.86794741316069
 11
92.465761598652634
 21
200.85894060361679
  0
LINE
  8
_0-0_0
  6
CONTINUOUS
 62
    7
 10
92.465761598652634
 20
200.85894060361679
 11
92.438543218162764
 21
200.79636307247227
  0
LINE
  8
_0-0_0
  6
CONTINUOUS
 62
    7
 10
92.438543218162764
 20
200.79636307247227
 11
92.377153398166982
 21
200.74014474476959
  0
LINE
  8
_0-0_0
  6
CONTINUOUS
 62
    7
 10
92.377153398166982
 20
200.74014474476959
 11
92.286590423082515
 21
200.6948632572273
  0
LINE
  8
_0-0_0
  6
CONTINUOUS
 62
    7
 10
92.286590423082515
 20
200.6948632572273
 11
92.174153767677097
 21
200.6641807192207
  0
LINE
  8
_0-0_0
  6
CONTINUOUS
 62
    7
 10
92.174153767677097
 20
200.6641807192207
 11
92.048998705388314
 21
200.65057152897569
  0
LINE
  8
_0-0_0
  6
CONTINUOUS
 62
    7
 10
92.048998705388314
 20
200.65057152897569
 11
91.921245524961734
 21
200.65512442171217
  0
LINE
  8
_0-0_0
  6
CONTINUOUS
 62
    7
 10
91.921245524961734
 20
200.65512442171217
 11
91.801237210983729
 21
200.67751772566069
  0
LINE
  8
_0-0_0
  6
CONTINUOUS
 62
    7
 10
91.801237210983729
 20
200.67751772566069
 11
91.698698148483729
 21
200.71589564215139
  0
LINE
  8
_0-0_0
  6
CONTINUOUS
 62
    7
 10
133.88726213972103
 20
222.03278687420368
 11
133.89753089236035
 21
221.98733217878569
  0
LINE
  8
_0-0_0
  6
CONTINUOUS
 62
    7
 10
133.89753089236035
 20
221.98733217878569
 11
133.94229275627504
 21
221.9273280217966
  0
LINE
  8
_0-0_0
  6
CONTINUOUS
 62
    7
 10
133.94229275627504
 20
221.9273280217966
 11
134.01904858925653
 21
221.8760584905466
  0
LINE
  8
_0-0_0
  6
CONTINUOUS
 62
    7
 10
134.01904858925653
 20
221.8760584905466
 11
134.12158765175653
 21
221.83768057405598
  0
LINE
  8
_0-0_0
  6
CONTINUOUS
 62
    7
 10
134.12158765175653
 20
221.83768057405598
 11
134.24159596573455
 21
221.8153120140897
  0
LINE
  8
_0-0_0
  6
CONTINUOUS
 62
    7
 10
134.24159596573455
 20
221.8153120140897
 11
134.36934914616103
 21
221.81073437737098
  0
LINE
  8
_0-0_0
  6
CONTINUOUS
 62
    7
 10
134.36934914616103
 20
221.81073437737098
 11
134.49450420844994
 21
221.8243435676159
  0
LINE
  8
_0-0_0
  6
CONTINUOUS
 62
    7
 10
134.49450420844994
 20
221.8243435676159
 11
134.60691611987303
 21
221.85505084960488
  0
LINE
  8
_0-0_0
  6
CONTINUOUS
 62
    7
 10
134.60691611987303
 20
221.85505084960488
 11
134.69747909495754
 21
221.90033233714718
  0
LINE
  8
_0-0_0
  6
CONTINUOUS
 62
    7
 10
134.69747909495754
 20
221.90033233714718
 11
134.75886891495324
 21
221.95652592086759
  0
LINE
  8
_0-0_0
  6
CONTINUOUS
 62
    7
 10
134.75886891495324
 20
221.95652592086759
 11
134.78611203942543
 21
222.01910345201208
  0
LINE
  8
_0-0_0
  6
CONTINUOUS
 62
    7
 10
134.78611203942543
 20
222.01910345201208
 11
134.78725026260955
 21
222.03516229650108
  0
LINE
  8
_0-0_0
  6
CONTINUOUS
 62
    7
 10
135.93104084274043
 20
222.44383390756528
 11
135.94274474635105
 21
222.45237058144608
  0
LINE
  8
_0-0_0
  6
CONTINUOUS
 62
    7
 10
135.94274474635105
 20
222.45237058144608
 11
136.01509615048963
 21
222.52004537293678
  0
LINE
  8
_0-0_0
  6
CONTINUOUS
 62
    7
 10
136.01509615048963
 20
222.52004537293678
 11
136.05963531856395
 21
222.5934607683127
  0
LINE
  8
_0-0_0
  6
CONTINUOUS
 62
    7
 10
136.05963531856395
 20
222.5934607683127
 11
136.07467965978014
 21
222.66982069757788
  0
LINE
  8
_0-0_0
  6
CONTINUOUS
 62
    7
 10
136.07467965978014
 20
222.66982069757788
 11
136.05963531856395
 21
222.74618062684308
  0
LINE
  8
_0-0_0
  6
CONTINUOUS
 62
    7
 10
136.05963531856395
 20
222.74618062684308
 11
136.01509615048963
 21
222.81962076620118
  0
LINE
  8
_0-0_0
  6
CONTINUOUS
 62
    7
 10
136.01509615048963
 20
222.81962076620118
 11
135.94274474635105
 21
222.88729555769189
  0
LINE
  8
_0-0_0
  6
CONTINUOUS
 62
    7
 10
135.94274474635105
 20
222.88729555769189
 11
135.84540192012645
 21
222.94660688317748
  0
LINE
  8
_0-0_0
  6
CONTINUOUS
 62
    7
 10
81.198168627263271
 20
205.96617277475278
 11
81.300707689763271
 21
205.92779485826208
  0
LINE
  8
_0-0_0
  6
CONTINUOUS
 62
    7
 10
81.300707689763271
 20
205.92779485826208
 11
81.42071600374129
 21
205.90540155431358
  0
LINE
  8
_0-0_0
  6
CONTINUOUS
 62
    7
 10
81.42071600374129
 20
205.90540155431358
 11
81.548469184167828
 21
205.9008486615771
  0
LINE
  8
_0-0_0
  6
CONTINUOUS
 62
    7
 10
81.548469184167828
 20
205.9008486615771
 11
81.673624246456683
 21
205.91445785182199
  0
LINE
  8
_0-0_0
  6
CONTINUOUS
 62
    7
 10
81.673624246456683
 20
205.91445785182199
 11
81.786036157879835
 21
205.94514038982879
  0
LINE
  8
_0-0_0
  6
CONTINUOUS
 62
    7
 10
81.786036157879835
 20
205.94514038982879
 11
81.876623876946553
 21
205.99042187737098
  0
LINE
  8
_0-0_0
  6
CONTINUOUS
 62
    7
 10
81.876623876946553
 20
205.99042187737098
 11
81.93798895296004
 21
206.04664020507369
  0
LINE
  8
_0-0_0
  6
CONTINUOUS
 62
    7
 10
81.93798895296004
 20
206.04664020507369
 11
81.965232077432177
 21
206.10921773621808
  0
LINE
  8
_0-0_0
  6
CONTINUOUS
 62
    7
 10
81.965232077432177
 20
206.10921773621808
 11
81.966345556634053
 21
206.12765200300439
  0
LINE
  8
_0-0_0
  6
CONTINUOUS
 62
    7
 10
80.008230520210873
 20
207.03669642340128
 11
79.910862950003974
 21
206.97738509791569
  0
LINE
  8
_0-0_0
  6
CONTINUOUS
 62
    7
 10
79.910862950003974
 20
206.97738509791569
 11
79.838536289847724
 21
206.9097103064251
  0
LINE
  8
_0-0_0
  6
CONTINUOUS
 62
    7
 10
79.838536289847724
 20
206.9097103064251
 11
79.793972377791135
 21
206.83629491104918
  0
LINE
  8
_0-0_0
  6
CONTINUOUS
 62
    7
 10
79.793972377791135
 20
206.83629491104918
 11
79.778928036574939
 21
206.759934981784
  0
LINE
  8
_0-0_0
  6
CONTINUOUS
 62
    7
 10
79.778928036574939
 20
206.759934981784
 11
79.793972377791135
 21
206.6835503085365
  0
LINE
  8
_0-0_0
  6
CONTINUOUS
 62
    7
 10
79.793972377791135
 20
206.6835503085365
 11
79.838536289847724
 21
206.61013491316069
  0
LINE
  8
_0-0_0
  6
CONTINUOUS
 62
    7
 10
79.838536289847724
 20
206.61013491316069
 11
79.910862950003974
 21
206.54246012166999
  0
LINE
  8
_0-0_0
  6
CONTINUOUS
 62
    7
 10
79.910862950003974
 20
206.54246012166999
 11
79.922591597596892
 21
206.53394819177129
  0
LINE
  8
_0-0_0
  6
CONTINUOUS
 62
    7
 10
138.02253831555504
 20
207.51878342984139
 11
138.02657158466403
 21
207.45863080895879
  0
LINE
  8
_0-0_0
  6
CONTINUOUS
 62
    7
 10
138.02657158466403
 20
207.45863080895879
 11
138.05873876160655
 21
207.38721967614629
  0
LINE
  8
_0-0_0
  6
CONTINUOUS
 62
    7
 10
138.05873876160655
 20
207.38721967614629
 11
138.10696478303814
 21
207.33265919525527
  0
LINE
  8
_0-0_0
  6
CONTINUOUS
 62
    7
 10
138.10696478303814
 20
207.33265919525527
 11
138.16936910630673
 21
207.2913120008929
  0
LINE
  8
_0-0_0
  6
CONTINUOUS
 62
    7
 10
138.16936910630673
 20
207.2913120008929
 11
138.24909421715984
 21
207.26226256571559
  0
LINE
  8
_0-0_0
  6
CONTINUOUS
 62
    7
 10
138.24909421715984
 20
207.26226256571559
 11
138.34693192302973
 21
207.24942043892079
  0
LINE
  8
_0-0_0
  6
CONTINUOUS
 62
    7
 10
138.34693192302973
 20
207.24942043892079
 11
138.44954521747653
 21
207.2581055766953
  0
LINE
  8
_0-0_0
  6
CONTINUOUS
 62
    7
 10
138.44954521747653
 20
207.2581055766953
 11
138.55275236749765
 21
207.29381114310158
  0
LINE
  8
_0-0_0
  6
CONTINUOUS
 62
    7
 10
138.55275236749765
 20
207.29381114310158
 11
138.62069934279324
 21
207.3420866524977
  0
LINE
  8
_0-0_0
  6
CONTINUOUS
 62
    7
 10
138.62069934279324
 20
207.3420866524977
 11
138.66937075590565
 21
207.40525803921639
  0
LINE
  8
_0-0_0
  6
CONTINUOUS
 62
    7
 10
138.66937075590565
 20
207.40525803921639
 11
138.69562412108715
 21
207.4818159203397
  0
LINE
  8
_0-0_0
  6
CONTINUOUS
 62
    7
 10
138.69562412108715
 20
207.4818159203397
 11
138.69505500949504
 21
207.51942677338019
  0
LINE
  8
_0-0_0
  6
CONTINUOUS
 62
    7
 10
127.52166237858295
 20
212.76962967403477
 11
127.52228097813953
 21
212.72536268976538
  0
LINE
  8
_0-0_0
  6
CONTINUOUS
 62
    7
 10
127.52228097813953
 20
212.72536268976538
 11
127.55031591004413
 21
212.65023995961329
  0
LINE
  8
_0-0_0
  6
CONTINUOUS
 62
    7
 10
127.55031591004413
 20
212.65023995961329
 11
127.59569637351534
 21
212.5926854568684
  0
LINE
  8
_0-0_0
  6
CONTINUOUS
 62
    7
 10
127.59569637351534
 20
212.5926854568684
 11
127.65515616289454
 21
212.54888860826199
  0
LINE
  8
_0-0_0
  6
CONTINUOUS
 62
    7
 10
127.65515616289454
 20
212.54888860826199
 11
127.73102121251453
 21
212.51724105494699
  0
LINE
  8
_0-0_0
  6
CONTINUOUS
 62
    7
 10
127.73102121251453
 20
212.51724105494699
 11
127.82598861644183
 21
212.50063784284819
  0
LINE
  8
_0-0_0
  6
CONTINUOUS
 62
    7
 10
127.82598861644183
 20
212.50063784284819
 11
127.92823075115474
 21
212.50474534390389
  0
LINE
  8
_0-0_0
  6
CONTINUOUS
 62
    7
 10
127.92823075115474
 20
212.50474534390389
 11
128.03151213312265
 21
212.53411645085069
  0
LINE
  8
_0-0_0
  6
CONTINUOUS
 62
    7
 10
128.03151213312265
 20
212.53411645085069
 11
128.10552138407283
 21
212.5793484504284
  0
LINE
  8
_0-0_0
  6
CONTINUOUS
 62
    7
 10
128.10552138407283
 20
212.5793484504284
 11
128.15943852142505
 21
212.6396990231691
  0
LINE
  8
_0-0_0
  6
CONTINUOUS
 62
    7
 10
128.15943852142505
 20
212.6396990231691
 11
128.17690777290304
 21
212.67179196816488
  0
LINE
  8
_0-0_0
  6
CONTINUOUS
 62
    7
 10
128.17690777290304
 20
212.67179196816488
 11
128.19732155827043
 21
212.75035411185158
  0
LINE
  8
_0-0_0
  6
CONTINUOUS
 62
    7
 10
128.19732155827043
 20
212.75035411185158
 11
128.19511934384894
 21
212.77049571341408
  0
LINE
  8
_0-0_0
  6
CONTINUOUS
 62
    7
 10
138.32778008075775
 20
207.41436382468927
 11
138.27787146853223
 21
207.40325377665309
  0
LINE
  8
_0-0_0
  6
CONTINUOUS
 62
    7
 10
138.27787146853223
 20
207.40325377665309
 11
138.24026061549174
 21
207.38345859084228
  0
LINE
  8
_0-0_0
  6
CONTINUOUS
 62
    7
 10
138.24026061549174
 20
207.38345859084228
 11
138.22066338153903
 21
207.35797228911079
  0
LINE
  8
_0-0_0
  6
CONTINUOUS
 62
    7
 10
138.22066338153903
 20
207.35797228911079
 11
138.22207378852804
 21
207.33065493269189
  0
LINE
  8
_0-0_0
  6
CONTINUOUS
 62
    7
 10
138.22207378852804
 20
207.33065493269189
 11
138.24426914061843
 21
207.3057129985703
  0
LINE
  8
_0-0_0
  6
CONTINUOUS
 62
    7
 10
138.24426914061843
 20
207.3057129985703
 11
138.28388425622234
 21
207.28688282806777
  0
LINE
  8
_0-0_0
  6
CONTINUOUS
 62
    7
 10
138.28388425622234
 20
207.28688282806777
 11
138.33488160366733
 21
207.27708421109139
  0
LINE
  8
_0-0_0
  6
CONTINUOUS
 62
    7
 10
138.33488160366733
 20
207.27708421109139
 11
138.38949157252293
 21
207.2778017865771
  0
LINE
  8
_0-0_0
  6
CONTINUOUS
 62
    7
 10
138.38949157252293
 20
207.2778017865771
 11
138.43940018474845
 21
207.2889118346134
  0
LINE
  8
_0-0_0
  6
CONTINUOUS
 62
    7
 10
138.43940018474845
 20
207.2889118346134
 11
138.47701103778903
 21
207.30870702042418
  0
LINE
  8
_0-0_0
  6
CONTINUOUS
 62
    7
 10
138.47701103778903
 20
207.30870702042418
 11
138.49660827174174
 21
207.33419332215558
  0
LINE
  8
_0-0_0
  6
CONTINUOUS
 62
    7
 10
138.49660827174174
 20
207.33419332215558
 11
138.49519786475275
 21
207.36151067857449
  0
LINE
  8
_0-0_0
  6
CONTINUOUS
 62
    7
 10
138.49519786475275
 20
207.36151067857449
 11
138.47300251266225
 21
207.38645261269608
  0
LINE
  8
_0-0_0
  6
CONTINUOUS
 62
    7
 10
138.47300251266225
 20
207.38645261269608
 11
138.43338739705845
 21
207.40525803921639
  0
LINE
  8
_0-0_0
  6
CONTINUOUS
 62
    7
 10
138.43338739705845
 20
207.40525803921639
 11
138.38239004961335
 21
207.41505665619277
  0
LINE
  8
_0-0_0
  6
CONTINUOUS
 62
    7
 10
138.38239004961335
 20
207.41505665619277
 11
138.32778008075775
 21
207.41436382468927
  0
LINE
  8
_0-0_0
  6
CONTINUOUS
 62
    7
 10
138.01862876635744
 20
207.57557086913619
 11
138.02483950590553
 21
207.60788650997227
  0
LINE
  8
_0-0_0
  6
CONTINUOUS
 62
    7
 10
138.02483950590553
 20
207.60788650997227
 11
138.06388550991733
 21
207.66031900838868
  0
LINE
  8
_0-0_0
  6
CONTINUOUS
 62
    7
 10
138.06388550991733
 20
207.66031900838868
 11
138.13490073901363
 21
207.70359623336759
  0
LINE
  8
_0-0_0
  6
CONTINUOUS
 62
    7
 10
138.13490073901363
 20
207.70359623336759
 11
138.23014032674595
 21
207.73296734031439
  0
LINE
  8
_0-0_0
  6
CONTINUOUS
 62
    7
 10
138.23014032674595
 20
207.73296734031439
 11
138.33933552047483
 21
207.74531458746389
  0
LINE
  8
_0-0_0
  6
CONTINUOUS
 62
    7
 10
138.33933552047483
 20
207.74531458746389
 11
138.45058446473155
 21
207.73925231180928
  0
LINE
  8
_0-0_0
  6
CONTINUOUS
 62
    7
 10
138.45058446473155
 20
207.73925231180928
 11
138.55188632811843
 21
207.71544860087178
  0
LINE
  8
_0-0_0
  6
CONTINUOUS
 62
    7
 10
138.55188632811843
 20
207.71544860087178
 11
138.63225478251024
 21
207.67650157278908
  0
LINE
  8
_0-0_0
  6
CONTINUOUS
 62
    7
 10
138.63225478251024
 20
207.67650157278908
 11
138.68295520216824
 21
207.62659296056358
  0
LINE
  8
_0-0_0
  6
CONTINUOUS
 62
    7
 10
138.68295520216824
 20
207.62659296056358
 11
138.69864288692324
 21
207.57557086913619
  0
LINE
  8
_0-0_0
  6
CONTINUOUS
 62
    7
 10
138.16412338206695
 20
208.77501066537769
 11
138.16694419604494
 21
208.79151490154749
  0
LINE
  8
_0-0_0
  6
CONTINUOUS
 62
    7
 10
138.16694419604494
 20
208.79151490154749
 11
138.19418732051705
 21
208.8269482841489
  0
LINE
  8
_0-0_0
  6
CONTINUOUS
 62
    7
 10
138.19418732051705
 20
208.8269482841489
 11
138.24644661105754
 21
208.8544635924259
  0
LINE
  8
_0-0_0
  6
CONTINUOUS
 62
    7
 10
138.24644661105754
 20
208.8544635924259
 11
138.31577924935993
 21
208.86987909337608
  0
LINE
  8
_0-0_0
  6
CONTINUOUS
 62
    7
 10
138.31577924935993
 20
208.86987909337608
 11
138.39164429897994
 21
208.87086885266649
  0
LINE
  8
_0-0_0
  6
CONTINUOUS
 62
    7
 10
138.39164429897994
 20
208.87086885266649
 11
138.46248632020033
 21
208.8572596624216
  0
LINE
  8
_0-0_0
  6
CONTINUOUS
 62
    7
 10
138.46248632020033
 20
208.8572596624216
 11
138.51751693675433
 21
208.83113001715128
  0
LINE
  8
_0-0_0
  6
CONTINUOUS
 62
    7
 10
138.51751693675433
 20
208.83113001715128
 11
138.54834793865473
 21
208.79643895401799
  0
LINE
  8
_0-0_0
  6
CONTINUOUS
 62
    7
 10
138.54834793865473
 20
208.79643895401799
 11
138.55312352723155
 21
208.77501066537769
  0
LINE
  8
_0-0_0
  6
CONTINUOUS
 62
    7
 10
127.99464359955005
 20
212.5809320652933
 11
127.97244824745964
 21
212.55596538718939
  0
LINE
  8
_0-0_0
  6
CONTINUOUS
 62
    7
 10
127.97244824745964
 20
212.55596538718939
 11
127.93283313185574
 21
212.5371599606691
  0
LINE
  8
_0-0_0
  6
CONTINUOUS
 62
    7
 10
127.93283313185574
 20
212.5371599606691
 11
127.88186052839293
 21
212.52736134369277
  0
LINE
  8
_0-0_0
  6
CONTINUOUS
 62
    7
 10
127.88186052839293
 20
212.52736134369277
 11
127.82725055953733
 21
212.5280789191784
  0
LINE
  8
_0-0_0
  6
CONTINUOUS
 62
    7
 10
127.82725055953733
 20
212.5280789191784
 11
127.77734194731184
 21
212.53916422323249
  0
LINE
  8
_0-0_0
  6
CONTINUOUS
 62
    7
 10
127.77734194731184
 20
212.53916422323249
 11
127.73973109427124
 21
212.55898415302548
  0
LINE
  8
_0-0_0
  6
CONTINUOUS
 62
    7
 10
127.73973109427124
 20
212.55898415302548
 11
127.72013386031854
 21
212.58447045475688
  0
LINE
  8
_0-0_0
  6
CONTINUOUS
 62
    7
 10
127.72013386031854
 20
212.58447045475688
 11
127.72154426730764
 21
212.61176306719358
  0
LINE
  8
_0-0_0
  6
CONTINUOUS
 62
    7
 10
127.72154426730764
 20
212.61176306719358
 11
127.74373961939794
 21
212.63672974529749
  0
LINE
  8
_0-0_0
  6
CONTINUOUS
 62
    7
 10
127.74373961939794
 20
212.63672974529749
 11
127.78335473500184
 21
212.65553517181769
  0
LINE
  8
_0-0_0
  6
CONTINUOUS
 62
    7
 10
127.78335473500184
 20
212.65553517181769
 11
127.83432733846465
 21
212.6653337887941
  0
LINE
  8
_0-0_0
  6
CONTINUOUS
 62
    7
 10
127.83432733846465
 20
212.6653337887941
 11
127.88893730732023
 21
212.66461621330848
  0
LINE
  8
_0-0_0
  6
CONTINUOUS
 62
    7
 10
127.88893730732023
 20
212.66461621330848
 11
127.93884591954574
 21
212.65353090925439
  0
LINE
  8
_0-0_0
  6
CONTINUOUS
 62
    7
 10
127.93884591954574
 20
212.65353090925439
 11
127.97648151656854
 21
212.63371097946128
  0
LINE
  8
_0-0_0
  6
CONTINUOUS
 62
    7
 10
127.97648151656854
 20
212.63371097946128
 11
127.99605400653904
 21
212.60822467772988
  0
LINE
  8
_0-0_0
  6
CONTINUOUS
 62
    7
 10
127.99605400653904
 20
212.60822467772988
 11
127.99464359955005
 21
212.5809320652933
  0
LINE
  8
_0-0_0
  6
CONTINUOUS
 62
    7
 10
128.19808862172053
 20
212.82584800173748
 11
128.18541970280165
 21
212.8718223207832
  0
LINE
  8
_0-0_0
  6
CONTINUOUS
 62
    7
 10
128.18541970280165
 20
212.8718223207832
 11
128.13783702490895
 21
212.92247325247658
  0
LINE
  8
_0-0_0
  6
CONTINUOUS
 62
    7
 10
128.13783702490895
 20
212.92247325247658
 11
128.05991822476113
 21
212.96265747967249
  0
LINE
  8
_0-0_0
  6
CONTINUOUS
 62
    7
 10
128.05991822476113
 20
212.96265747967249
 11
127.96015048827464
 21
212.98799531751038
  0
LINE
  8
_0-0_0
  6
CONTINUOUS
 62
    7
 10
127.96015048827464
 20
212.98799531751038
 11
127.84929744773405
 21
212.99578967192329
  0
LINE
  8
_0-0_0
  6
CONTINUOUS
 62
    7
 10
127.84929744773405
 20
212.99578967192329
 11
127.73943416648405
 21
212.98514975954998
  0
LINE
  8
_0-0_0
  6
CONTINUOUS
 62
    7
 10
127.73943416648405
 20
212.98514975954998
 11
127.64238826804664
 21
212.95726329153908
  0
LINE
  8
_0-0_0
  6
CONTINUOUS
 62
    7
 10
127.64238826804664
 20
212.95726329153908
 11
127.56875017683033
 21
212.91512428974428
  0
LINE
  8
_0-0_0
  6
CONTINUOUS
 62
    7
 10
127.56875017683033
 20
212.91512428974428
 11
127.52646271114205
 21
212.86331039088449
  0
LINE
  8
_0-0_0
  6
CONTINUOUS
 62
    7
 10
128.05259400601113
 20
214.02528779797899
 11
128.04977319203303
 21
214.0417920341489
  0
LINE
  8
_0-0_0
  6
CONTINUOUS
 62
    7
 10
128.04977319203303
 20
214.0417920341489
 11
128.02255481154324
 21
214.0772254167502
  0
LINE
  8
_0-0_0
  6
CONTINUOUS
 62
    7
 10
128.02255481154324
 20
214.0772254167502
 11
127.97029552100274
 21
214.1047407250272
  0
LINE
  8
_0-0_0
  6
CONTINUOUS
 62
    7
 10
127.97029552100274
 20
214.1047407250272
 11
127.90096288270034
 21
214.12015622597738
  0
LINE
  8
_0-0_0
  6
CONTINUOUS
 62
    7
 10
127.90096288270034
 20
214.12015622597738
 11
127.82509783308033
 21
214.12112124128569
  0
LINE
  8
_0-0_0
  6
CONTINUOUS
 62
    7
 10
127.82509783308033
 20
214.12112124128569
 11
127.75425581185993
 21
214.1075120510408
  0
LINE
  8
_0-0_0
  6
CONTINUOUS
 62
    7
 10
127.75425581185993
 20
214.1075120510408
 11
127.69922519530594
 21
214.08138240577048
  0
LINE
  8
_0-0_0
  6
CONTINUOUS
 62
    7
 10
127.69922519530594
 20
214.08138240577048
 11
127.66836944942324
 21
214.04671608661928
  0
LINE
  8
_0-0_0
  6
CONTINUOUS
 62
    7
 10
138.28371104834645
 20
207.68511247861679
 11
138.39545487224845
 21
207.6882797083465
  0
LINE
  8
_0-0_0
  6
CONTINUOUS
 62
    7
 10
138.39545487224845
 20
207.6882797083465
 11
138.50321491500603
 21
207.67316113518339
  0
LINE
  8
_0-0_0
  6
CONTINUOUS
 62
    7
 10
138.50321491500603
 20
207.67316113518339
 11
138.59528727300864
 21
207.64134037399259
  0
LINE
  8
_0-0_0
  6
CONTINUOUS
 62
    7
 10
138.59528727300864
 20
207.64134037399259
 11
138.66172486538613
 21
207.59630632627298
  0
LINE
  8
_0-0_0
  6
CONTINUOUS
 62
    7
 10
138.66172486538613
 20
207.59630632627298
 11
138.69532719329993
 21
207.54293355653058
  0
LINE
  8
_0-0_0
  6
CONTINUOUS
 62
    7
 10
138.69532719329993
 20
207.54293355653058
 11
138.69864288692324
 21
207.51935254143339
  0
LINE
  8
_0-0_0
  6
CONTINUOUS
 62
    7
 10
138.01862876635744
 20
207.51912984559308
 11
138.01875248626874
 21
207.5236827383296
  0
LINE
  8
_0-0_0
  6
CONTINUOUS
 62
    7
 10
138.01875248626874
 20
207.5236827383296
 11
138.04000756703314
 21
207.5786143789546
  0
LINE
  8
_0-0_0
  6
CONTINUOUS
 62
    7
 10
138.04000756703314
 20
207.5786143789546
 11
138.09580524703725
 21
207.62713732817329
  0
LINE
  8
_0-0_0
  6
CONTINUOUS
 62
    7
 10
138.09580524703725
 20
207.62713732817329
 11
138.18008325062684
 21
207.66395637378139
  0
LINE
  8
_0-0_0
  6
CONTINUOUS
 62
    7
 10
138.18008325062684
 20
207.66395637378139
 11
138.28371104834645
 21
207.68511247861679
  0
LINE
  8
_0-0_0
  6
CONTINUOUS
 62
    7
 10
128.19808862172053
 20
212.76992660182199
 11
128.19608435915723
 21
212.7879649648921
  0
LINE
  8
_0-0_0
  6
CONTINUOUS
 62
    7
 10
128.19608435915723
 20
212.7879649648921
 11
128.16582246884894
 21
212.84183261427978
  0
LINE
  8
_0-0_0
  6
CONTINUOUS
 62
    7
 10
128.16582246884894
 20
212.84183261427978
 11
128.10220569044944
 21
212.88788116527218
  0
LINE
  8
_0-0_0
  6
CONTINUOUS
 62
    7
 10
128.10220569044944
 20
212.88788116527218
 11
128.01213759501024
 21
212.9211123334521
  0
LINE
  8
_0-0_0
  6
CONTINUOUS
 62
    7
 10
128.01213759501024
 20
212.9211123334521
 11
127.90536731154324
 21
212.93791349740889
  0
LINE
  8
_0-0_0
  6
CONTINUOUS
 62
    7
 10
127.90536731154324
 20
212.93791349740889
 11
127.79347502374765
 21
212.9364536024554
  0
LINE
  8
_0-0_0
  6
CONTINUOUS
 62
    7
 10
127.79347502374765
 20
212.9364536024554
 11
127.68861002691484
 21
212.91693060044958
  0
LINE
  8
_0-0_0
  6
CONTINUOUS
 62
    7
 10
127.68861002691484
 20
212.91693060044958
 11
127.60208032093934
 21
212.88142298590128
  0
LINE
  8
_0-0_0
  6
CONTINUOUS
 62
    7
 10
127.60208032093934
 20
212.88142298590128
 11
127.54331336306343
 21
212.8337908200441
  0
LINE
  8
_0-0_0
  6
CONTINUOUS
 62
    7
 10
127.54331336306343
 20
212.8337908200441
 11
127.51864361274674
 21
212.77920559517079
  0
LINE
  8
_0-0_0
  6
CONTINUOUS
 62
    7
 10
127.51864361274674
 20
212.77920559517079
 11
127.51809924513694
 21
212.76955544208798
  0
LINE
  8
_0-0_0
  6
CONTINUOUS
 62
    7
 10
92.084481575954143
 20
187.11344813238568
 11
92.091880026650927
 21
187.04524134527639
  0
LINE
  8
_0-0_0
  6
CONTINUOUS
 62
    7
 10
92.091880026650927
 20
187.04524134527639
 11
92.126026722174586
 21
186.97584684701837
  0
LINE
  8
_0-0_0
  6
CONTINUOUS
 62
    7
 10
92.126026722174586
 20
186.97584684701837
 11
92.175762126524234
 21
186.9228081210365
  0
LINE
  8
_0-0_0
  6
CONTINUOUS
 62
    7
 10
92.175762126524234
 20
186.9228081210365
 11
92.239750064657684
 21
186.88275998574298
  0
LINE
  8
_0-0_0
  6
CONTINUOUS
 62
    7
 10
92.239750064657684
 20
186.88275998574298
 11
92.321553670020876
 21
186.85512095755467
  0
LINE
  8
_0-0_0
  6
CONTINUOUS
 62
    7
 10
92.321553670020876
 20
186.85512095755467
 11
92.420381135181344
 21
186.84438206925228
  0
LINE
  8
_0-0_0
  6
CONTINUOUS
 62
    7
 10
92.420381135181344
 20
186.84438206925228
 11
92.523142893521722
 21
186.85549211728858
  0
LINE
  8
_0-0_0
  6
CONTINUOUS
 62
    7
 10
92.523142893521722
 20
186.85549211728858
 11
92.615190507541982
 21
186.88868616949517
  0
LINE
  8
_0-0_0
  6
CONTINUOUS
 62
    7
 10
92.615190507541982
 20
186.88868616949517
 11
92.683384922660238
 21
186.93698642287347
  0
LINE
  8
_0-0_0
  6
CONTINUOUS
 62
    7
 10
92.683384922660238
 20
186.93698642287347
 11
92.732105823737086
 21
187.00009594963657
  0
LINE
  8
_0-0_0
  6
CONTINUOUS
 62
    7
 10
92.732105823737086
 20
187.00009594963657
 11
92.758458164847738
 21
187.0766167147865
  0
LINE
  8
_0-0_0
  6
CONTINUOUS
 62
    7
 10
92.758458164847738
 20
187.0766167147865
 11
92.757938541220213
 21
187.11430179977378
  0
LINE
  8
_0-0_0
  6
CONTINUOUS
 62
    7
 10
92.284957320253156
 20
186.95660840080848
 11
92.307152672343491
 21
186.98156270692118
  0
LINE
  8
_0-0_0
  6
CONTINUOUS
 62
    7
 10
92.307152672343491
 20
186.98156270692118
 11
92.3467677879474
 21
187.0003681334415
  0
LINE
  8
_0-0_0
  6
CONTINUOUS
 62
    7
 10
92.3467677879474
 20
187.0003681334415
 11
92.397765135392476
 21
187.0101667504178
  0
LINE
  8
_0-0_0
  6
CONTINUOUS
 62
    7
 10
92.397765135392476
 20
187.0101667504178
 11
92.452375104248077
 21
187.00946154692329
  0
LINE
  8
_0-0_0
  6
CONTINUOUS
 62
    7
 10
92.452375104248077
 20
187.00946154692329
 11
92.502283716473556
 21
186.99836387087808
  0
LINE
  8
_0-0_0
  6
CONTINUOUS
 62
    7
 10
92.502283716473556
 20
186.99836387087808
 11
92.539894569514118
 21
186.97855631307618
  0
LINE
  8
_0-0_0
  6
CONTINUOUS
 62
    7
 10
92.539894569514118
 20
186.97855631307618
 11
92.559491803466827
 21
186.95305763935369
  0
LINE
  8
_0-0_0
  6
CONTINUOUS
 62
    7
 10
92.559491803466827
 20
186.95305763935369
 11
92.558081396477803
 21
186.9257526549259
  0
LINE
  8
_0-0_0
  6
CONTINUOUS
 62
    7
 10
92.558081396477803
 20
186.9257526549259
 11
92.535886044387425
 21
186.90079834881308
  0
LINE
  8
_0-0_0
  6
CONTINUOUS
 62
    7
 10
92.535886044387425
 20
186.90079834881308
 11
92.496270928783545
 21
186.8819929222928
  0
LINE
  8
_0-0_0
  6
CONTINUOUS
 62
    7
 10
92.496270928783545
 20
186.8819929222928
 11
92.445273581338427
 21
186.8721943053165
  0
LINE
  8
_0-0_0
  6
CONTINUOUS
 62
    7
 10
92.445273581338427
 20
186.8721943053165
 11
92.390663612482868
 21
186.87289950881109
  0
LINE
  8
_0-0_0
  6
CONTINUOUS
 62
    7
 10
92.390663612482868
 20
186.87289950881109
 11
92.340755000257374
 21
186.88399718485618
  0
LINE
  8
_0-0_0
  6
CONTINUOUS
 62
    7
 10
92.340755000257374
 20
186.88399718485618
 11
92.303144147216827
 21
186.90380474265808
  0
LINE
  8
_0-0_0
  6
CONTINUOUS
 62
    7
 10
92.303144147216827
 20
186.90380474265808
 11
92.283546913264132
 21
186.92930341638069
  0
LINE
  8
_0-0_0
  6
CONTINUOUS
 62
    7
 10
92.283546913264132
 20
186.92930341638069
 11
92.284957320253156
 21
186.95660840080848
  0
LINE
  8
_0-0_0
  6
CONTINUOUS
 62
    7
 10
92.761526418648387
 20
187.17068096336118
 11
92.759522156085083
 21
187.18909048616518
  0
LINE
  8
_0-0_0
  6
CONTINUOUS
 62
    7
 10
92.759522156085083
 20
187.18909048616518
 11
92.729235521794521
 21
187.2429705075441
  0
LINE
  8
_0-0_0
  6
CONTINUOUS
 62
    7
 10
92.729235521794521
 20
187.2429705075441
 11
92.665618743395044
 21
187.28900668654538
  0
LINE
  8
_0-0_0
  6
CONTINUOUS
 62
    7
 10
92.665618743395044
 20
187.28900668654538
 11
92.575550647955836
 21
187.3222254827341
  0
LINE
  8
_0-0_0
  6
CONTINUOUS
 62
    7
 10
92.575550647955836
 20
187.3222254827341
 11
92.468780364488794
 21
187.339026646691
  0
LINE
  8
_0-0_0
  6
CONTINUOUS
 62
    7
 10
92.468780364488794
 20
187.339026646691
 11
92.356912820675447
 21
187.33757912372869
  0
LINE
  8
_0-0_0
  6
CONTINUOUS
 62
    7
 10
92.356912820675447
 20
187.33757912372869
 11
92.252023079860393
 21
187.3180437497316
  0
LINE
  8
_0-0_0
  6
CONTINUOUS
 62
    7
 10
92.252023079860393
 20
187.3180437497316
 11
92.1654933738849
 21
187.28253613518339
  0
LINE
  8
_0-0_0
  6
CONTINUOUS
 62
    7
 10
92.1654933738849
 20
187.28253613518339
 11
92.106726416009039
 21
187.23491634131727
  0
LINE
  8
_0-0_0
  6
CONTINUOUS
 62
    7
 10
92.106726416009039
 20
187.23491634131727
 11
92.082056665692321
 21
187.18033111644399
  0
LINE
  8
_0-0_0
  6
CONTINUOUS
 62
    7
 10
92.082056665692321
 20
187.18033111644399
 11
92.081512298082515
 21
187.17068096336118
  0
LINE
  8
_0-0_0
  6
CONTINUOUS
 62
    7
 10
92.616007058956683
 20
188.37010838761168
 11
92.61318624497865
 21
188.38661262378139
  0
LINE
  8
_0-0_0
  6
CONTINUOUS
 62
    7
 10
92.61318624497865
 20
188.38661262378139
 11
92.585967864488794
 21
188.4220460063828
  0
LINE
  8
_0-0_0
  6
CONTINUOUS
 62
    7
 10
92.585967864488794
 20
188.4220460063828
 11
92.533708573948246
 21
188.44956131465977
  0
LINE
  8
_0-0_0
  6
CONTINUOUS
 62
    7
 10
92.533708573948246
 20
188.44956131465977
 11
92.464375935645876
 21
188.46497681560999
  0
LINE
  8
_0-0_0
  6
CONTINUOUS
 62
    7
 10
92.464375935645876
 20
188.46497681560999
 11
92.388510886025927
 21
188.4659418309183
  0
LINE
  8
_0-0_0
  6
CONTINUOUS
 62
    7
 10
92.388510886025927
 20
188.4659418309183
 11
92.317668864805469
 21
188.45233264067329
  0
LINE
  8
_0-0_0
  6
CONTINUOUS
 62
    7
 10
92.317668864805469
 20
188.45233264067329
 11
92.262638248251434
 21
188.42620299540297
  0
LINE
  8
_0-0_0
  6
CONTINUOUS
 62
    7
 10
92.262638248251434
 20
188.42620299540297
 11
92.231807246351124
 21
188.39153667625189
  0
LINE
  8
_0-0_0
  6
CONTINUOUS
 62
    7
 10
92.231807246351124
 20
188.39153667625189
 11
92.227006913791982
 21
188.37010838761168
  0
LINE
  8
_0-0_0
  6
CONTINUOUS
 62
    7
 10
92.761526418648387
 20
187.11438840371179
 11
92.748832755747245
 21
187.16036272275738
  0
LINE
  8
_0-0_0
  6
CONTINUOUS
 62
    7
 10
92.748832755747245
 20
187.16036272275738
 11
92.701250077854482
 21
187.2110136544508
  0
LINE
  8
_0-0_0
  6
CONTINUOUS
 62
    7
 10
92.701250077854482
 20
187.2110136544508
 11
92.623331277706683
 21
187.25119788164668
  0
LINE
  8
_0-0_0
  6
CONTINUOUS
 62
    7
 10
92.623331277706683
 20
187.25119788164668
 11
92.523563541220213
 21
187.27654809147569
  0
LINE
  8
_0-0_0
  6
CONTINUOUS
 62
    7
 10
92.523563541220213
 20
187.27654809147569
 11
92.412735244661917
 21
187.28433007389759
  0
LINE
  8
_0-0_0
  6
CONTINUOUS
 62
    7
 10
92.412735244661917
 20
187.28433007389759
 11
92.302847219429637
 21
187.27369016152429
  0
LINE
  8
_0-0_0
  6
CONTINUOUS
 62
    7
 10
92.302847219429637
 20
187.27369016152429
 11
92.205826064974403
 21
187.24579132152209
  0
LINE
  8
_0-0_0
  6
CONTINUOUS
 62
    7
 10
92.205826064974403
 20
187.24579132152209
 11
92.132163229775927
 21
187.20365231972738
  0
LINE
  8
_0-0_0
  6
CONTINUOUS
 62
    7
 10
92.132163229775927
 20
187.20365231972738
 11
92.089875764087594
 21
187.15183842086759
  0
LINE
  8
_0-0_0
  6
CONTINUOUS
 62
    7
 10
81.256205637662333
 20
192.65066885530598
 11
81.256898469165719
 21
192.6063276390897
  0
LINE
  8
_0-0_0
  6
CONTINUOUS
 62
    7
 10
81.256898469165719
 20
192.6063276390897
 11
81.285007633017045
 21
192.53127914088449
  0
LINE
  8
_0-0_0
  6
CONTINUOUS
 62
    7
 10
81.285007633017045
 20
192.53127914088449
 11
81.330437584452852
 21
192.47374938212178
  0
LINE
  8
_0-0_0
  6
CONTINUOUS
 62
    7
 10
81.330437584452852
 20
192.47374938212178
 11
81.389922117814365
 21
192.43000202147988
  0
LINE
  8
_0-0_0
  6
CONTINUOUS
 62
    7
 10
81.389922117814365
 20
192.43000202147988
 11
81.465886143363349
 21
192.39840395612939
  0
LINE
  8
_0-0_0
  6
CONTINUOUS
 62
    7
 10
81.465886143363349
 20
192.39840395612939
 11
81.560903035255251
 21
192.3818749759773
  0
LINE
  8
_0-0_0
  6
CONTINUOUS
 62
    7
 10
81.560903035255251
 20
192.3818749759773
 11
81.645948102294938
 21
192.38380500659397
  0
LINE
  8
_0-0_0
  6
CONTINUOUS
 62
    7
 10
81.623480566399707
 20
192.40931605230767
 11
81.673413922607438
 21
192.42042610034397
  0
LINE
  8
_0-0_0
  6
CONTINUOUS
 62
    7
 10
81.673413922607438
 20
192.42042610034397
 11
81.711024775647957
 21
192.44022128615478
  0
LINE
  8
_0-0_0
  6
CONTINUOUS
 62
    7
 10
81.711024775647957
 20
192.44022128615478
 11
81.730622009600694
 21
192.4657323318684
  0
LINE
  8
_0-0_0
  6
CONTINUOUS
 62
    7
 10
81.730622009600694
 20
192.4657323318684
 11
81.729211602611656
 21
192.49302494430509
  0
LINE
  8
_0-0_0
  6
CONTINUOUS
 62
    7
 10
81.729211602611656
 20
192.49302494430509
 11
81.706991506539026
 21
192.51799162240889
  0
LINE
  8
_0-0_0
  6
CONTINUOUS
 62
    7
 10
81.706991506539026
 20
192.51799162240889
 11
81.667401134917441
 21
192.53679704892929
  0
LINE
  8
_0-0_0
  6
CONTINUOUS
 62
    7
 10
81.667401134917441
 20
192.53679704892929
 11
81.616403787472279
 21
192.54659566590558
  0
LINE
  8
_0-0_0
  6
CONTINUOUS
 62
    7
 10
81.616403787472279
 20
192.54659566590558
 11
81.561793818616707
 21
192.54587809041999
  0
LINE
  8
_0-0_0
  6
CONTINUOUS
 62
    7
 10
81.561793818616707
 20
192.54587809041999
 11
81.511885206391241
 21
192.5347927863659
  0
LINE
  8
_0-0_0
  6
CONTINUOUS
 62
    7
 10
81.511885206391241
 20
192.5347927863659
 11
81.474274353350694
 21
192.5149728565728
  0
LINE
  8
_0-0_0
  6
CONTINUOUS
 62
    7
 10
81.474274353350694
 20
192.5149728565728
 11
81.454677119397957
 21
192.48948655484139
  0
LINE
  8
_0-0_0
  6
CONTINUOUS
 62
    7
 10
81.454677119397957
 20
192.48948655484139
 11
81.456087526387023
 21
192.46219394240478
  0
LINE
  8
_0-0_0
  6
CONTINUOUS
 62
    7
 10
81.456087526387023
 20
192.46219394240478
 11
81.478282878477359
 21
192.4372272643009
  0
LINE
  8
_0-0_0
  6
CONTINUOUS
 62
    7
 10
81.478282878477359
 20
192.4372272643009
 11
81.517897994081238
 21
192.41842183778058
  0
LINE
  8
_0-0_0
  6
CONTINUOUS
 62
    7
 10
81.517897994081238
 20
192.41842183778058
 11
81.568895341526314
 21
192.40862322080429
  0
LINE
  8
_0-0_0
  6
CONTINUOUS
 62
    7
 10
81.568895341526314
 20
192.40862322080429
 11
81.623480566399707
 21
192.40931605230767
  0
LINE
  8
_0-0_0
  6
CONTINUOUS
 62
    7
 10
81.517724786205406
 20
192.87291930399678
 11
81.629468610107438
 21
192.87611127770879
  0
LINE
  8
_0-0_0
  6
CONTINUOUS
 62
    7
 10
81.629468610107438
 20
192.87611127770879
 11
81.737228652865042
 21
192.86096796056358
  0
LINE
  8
_0-0_0
  6
CONTINUOUS
 62
    7
 10
81.737228652865042
 20
192.86096796056358
 11
81.829301010867596
 21
192.8291471993727
  0
LINE
  8
_0-0_0
  6
CONTINUOUS
 62
    7
 10
81.829301010867596
 20
192.8291471993727
 11
81.895738603245093
 21
192.78411315165297
  0
LINE
  8
_0-0_0
  6
CONTINUOUS
 62
    7
 10
81.895738603245093
 20
192.78411315165297
 11
81.929340931158947
 21
192.73074038191069
  0
LINE
  8
_0-0_0
  6
CONTINUOUS
 62
    7
 10
81.929340931158947
 20
192.73074038191069
 11
81.932631880799988
 21
192.707109878849
  0
LINE
  8
_0-0_0
  6
CONTINUOUS
 62
    7
 10
81.252642504216396
 20
192.707109878849
 11
81.252766224127697
 21
192.71148956370959
  0
LINE
  8
_0-0_0
  6
CONTINUOUS
 62
    7
 10
81.252766224127697
 20
192.71148956370959
 11
81.274021304892074
 21
192.76644594831689
  0
LINE
  8
_0-0_0
  6
CONTINUOUS
 62
    7
 10
81.274021304892074
 20
192.76644594831689
 11
81.329818984896292
 21
192.8149441535534
  0
LINE
  8
_0-0_0
  6
CONTINUOUS
 62
    7
 10
81.329818984896292
 20
192.8149441535534
 11
81.414096988485824
 21
192.85178794314368
  0
LINE
  8
_0-0_0
  6
CONTINUOUS
 62
    7
 10
81.414096988485824
 20
192.85178794314368
 11
81.517724786205406
 21
192.87291930399678
  0
LINE
  8
_0-0_0
  6
CONTINUOUS
 62
    7
 10
81.54979298721895
 20
194.00141810308889
 11
81.625658036838814
 21
194.00238311839718
  0
LINE
  8
_0-0_0
  6
CONTINUOUS
 62
    7
 10
81.625658036838814
 20
194.00238311839718
 11
81.696500058059314
 21
193.9887739281522
  0
LINE
  8
_0-0_0
  6
CONTINUOUS
 62
    7
 10
81.696500058059314
 20
193.9887739281522
 11
81.751530674613349
 21
193.96264428288188
  0
LINE
  8
_0-0_0
  6
CONTINUOUS
 62
    7
 10
81.751530674613349
 20
193.96264428288188
 11
81.782361676513688
 21
193.9279779637308
  0
LINE
  8
_0-0_0
  6
CONTINUOUS
 62
    7
 10
81.782361676513688
 20
193.9279779637308
 11
81.787137265090564
 21
193.90654967509059
  0
LINE
  8
_0-0_0
  6
CONTINUOUS
 62
    7
 10
81.398137119925849
 20
193.90654967509059
 11
81.400957933903896
 21
193.92305391126038
  0
LINE
  8
_0-0_0
  6
CONTINUOUS
 62
    7
 10
81.400957933903896
 20
193.92305391126038
 11
81.428176314393767
 21
193.95846254987939
  0
LINE
  8
_0-0_0
  6
CONTINUOUS
 62
    7
 10
81.428176314393767
 20
193.95846254987939
 11
81.480435604934314
 21
193.98597785815647
  0
LINE
  8
_0-0_0
  6
CONTINUOUS
 62
    7
 10
81.480435604934314
 20
193.98597785815647
 11
81.54979298721895
 21
194.00141810308889
  0
LINE
  8
_0-0_0
  6
CONTINUOUS
 62
    7
 10
81.252642504216396
 20
192.65076783123499
 11
81.258828499782283
 21
192.6831082160534
  0
LINE
  8
_0-0_0
  6
CONTINUOUS
 62
    7
 10
81.258828499782283
 20
192.6831082160534
 11
81.297899247776314
 21
192.7355654584521
  0
LINE
  8
_0-0_0
  6
CONTINUOUS
 62
    7
 10
81.297899247776314
 20
192.7355654584521
 11
81.368914476872646
 21
192.77881793944869
  0
LINE
  8
_0-0_0
  6
CONTINUOUS
 62
    7
 10
81.368914476872646
 20
192.77881793944869
 11
81.464154064604884
 21
192.80821379037769
  0
LINE
  8
_0-0_0
  6
CONTINUOUS
 62
    7
 10
81.464154064604884
 20
192.80821379037769
 11
81.573324514351555
 21
192.82053629354488
  0
LINE
  8
_0-0_0
  6
CONTINUOUS
 62
    7
 10
81.573324514351555
 20
192.82053629354488
 11
81.684598202590564
 21
192.81447401789038
  0
LINE
  8
_0-0_0
  6
CONTINUOUS
 62
    7
 10
81.684598202590564
 20
192.81447401789038
 11
81.785900065977359
 21
192.79067030695288
  0
LINE
  8
_0-0_0
  6
CONTINUOUS
 62
    7
 10
81.785900065977359
 20
192.79067030695288
 11
81.86626852036926
 21
192.75172327887009
  0
LINE
  8
_0-0_0
  6
CONTINUOUS
 62
    7
 10
81.86626852036926
 20
192.75172327887009
 11
81.916968940027203
 21
192.70183941062689
  0
LINE
  8
_0-0_0
  6
CONTINUOUS
 62
    7
 10
81.916968940027203
 20
192.70183941062689
 11
81.932631880799988
 21
192.65096578309308
  0
CIRCLE
  8
_0-0_0
  6
CONTINUOUS
 62
    7
 10
274.37428969461962
 20
129.22069514991108
 40
0.200000002577498
  0
CIRCLE
  8
_0-0_0
  6
CONTINUOUS
 62
    7
 10
274.37428969461962
 20
144.12069234559308
 40
0.200000002577498
  0
CIRCLE
  8
_0-0_0
  6
CONTINUOUS
 62
    7
 10
334.27429926229286
 20
144.12069234559308
 40
0.200000002577498
  0
CIRCLE
  8
_0-0_0
  6
CONTINUOUS
 62
    7
 10
334.27429926229286
 20
129.22069514991108
 40
0.200000002577498
  0
CIRCLE
  8
_0-0_0
  6
CONTINUOUS
 62
    7
 10
281.93679299381722
 20
136.67068756175649
 40
0.2250000028996853
  0
ARC
  8
_0-0_0
  6
CONTINUOUS
 62
    7
 10
325.08678441590342
 20
136.67068756175649
 40
0.4500000057993707
 50
29.999984741210937
 51
330
  0
ARC
  8
_0-0_0
  6
CONTINUOUS
 62
    7
 10
326.71179596309526
 20
136.67068756175649
 40
0.2250000028996853
 50
270
 51
90
  0
ARC
  8
_0-0_0
  6
CONTINUOUS
 62
    7
 10
319.72429332373713
 20
136.67068756175649
 40
0.6000000077324945
 50
270
 51
90
  0
ARC
  8
_0-0_0
  6
CONTINUOUS
 62
    7
 10
318.92429563317552
 20
136.67068756175649
 40
0.6000000077324945
 50
90
 51
270
  0
ARC
  8
_0-0_0
  6
CONTINUOUS
 62
    7
 10
289.72429332373702
 20
136.67068756175649
 40
0.6000000077324945
 50
270
 51
90
  0
ARC
  8
_0-0_0
  6
CONTINUOUS
 62
    7
 10
288.92429563317552
 20
136.67068756175649
 40
0.6000000077324945
 50
90
 51
270
  0
CIRCLE
  8
_0-0_0
  6
CONTINUOUS
 62
    7
 10
294.32429860245333
 20
136.67068756175649
 40
1.00000001288749
  0
ARC
  8
_0-0_0
  6
CONTINUOUS
 62
    7
 10
330.77428771510114
 20
215.91115040619277
 40
0.200000002577498
 50
270
 51
0
  0
ARC
  8
_0-0_0
  6
CONTINUOUS
 62
    7
 10
277.87430124181145
 20
215.91115040619277
 40
0.200000002577498
 50
180
 51
270
  0
ARC
  8
_0-0_0
  6
CONTINUOUS
 62
    7
 10
276.67429233397786
 20
216.41115205579158
 40
0.100000001288749
 50
90
 51
101.5369567871093
  0
ARC
  8
_0-0_0
  6
CONTINUOUS
 62
    7
 10
331.97429662293473
 20
216.41115205579158
 40
0.100000001288749
 50
78.463027954101563
 51
90
  0
ARC
  8
_0-0_0
  6
CONTINUOUS
 62
    7
 10
332.12429464341614
 20
216.06114842667418
 40
0.0500000006443745
 50
180
 51
270
  0
ARC
  8
_0-0_0
  6
CONTINUOUS
 62
    7
 10
332.07428705526166
 20
216.01116558250189
 40
0.100000001288749
 50
180
 51
270
  0
ARC
  8
_0-0_0
  6
CONTINUOUS
 62
    7
 10
331.92428903478026
 20
216.36116921161928
 40
0.0500000006443745
 50
0
 51
90
  0
ARC
  8
_0-0_0
  6
CONTINUOUS
 62
    7
 10
331.97429662293473
 20
216.41115205579158
 40
0.100000001288749
 50
0
 51
78.463027954101563
  0
ARC
  8
_0-0_0
  6
CONTINUOUS
 62
    7
 10
276.72429992213233
 20
216.36116921161928
 40
0.0500000006443745
 50
90
 51
180
  0
ARC
  8
_0-0_0
  6
CONTINUOUS
 62
    7
 10
276.57430190165093
 20
216.01116558250189
 40
0.100000001288749
 50
270
 51
0
  0
ARC
  8
_0-0_0
  6
CONTINUOUS
 62
    7
 10
276.52429431349645
 20
216.06114842667418
 40
0.0500000006443745
 50
270
 51
0
  0
ARC
  8
_0-0_0
  6
CONTINUOUS
 62
    7
 10
276.67429233397786
 20
216.41115205579158
 40
0.100000001288749
 50
101.53695678710929
 51
180
  0
ARC
  8
_0-0_0
  6
CONTINUOUS
 62
    7
 10
81.527436799243844
 20
208.96368353013708
 40
0.0111453955036562
 50
121.76026916503901
 51
186.91056823730469
  0
ARC
  8
_0-0_0
  6
CONTINUOUS
 62
    7
 10
123.87074965555713
 20
226.78509136375189
 40
0.6987281586672805
 50
64.831893920898438
 51
91.520065307617145
  0
ARC
  8
_0-0_0
  6
CONTINUOUS
 62
    7
 10
124.12157940376244
 20
227.25938401577889
 40
0.16476053643871
 50
9.5391845703125
 51
73.668441772460923
  0
ARC
  8
_0-0_0
  6
CONTINUOUS
 62
    7
 10
92.016905760392476
 20
200.50393869008209
 40
0.1184344734694506
 50
243.28375244140619
 51
296.71623229980469
  0
ARC
  8
_0-0_0
  6
CONTINUOUS
 62
    7
 10
134.35559149202254
 20
221.49584245908548
 40
0.7406810006579839
 50
65.015670776367188
 51
97.803466796875014
  0
ARC
  8
_0-0_0
  6
CONTINUOUS
 62
    7
 10
134.62181199719575
 20
222.00841405167418
 40
0.1655022880515535
 50
10.625869750976561
 51
73.637863159179688
  0
ARC
  8
_0-0_0
  6
CONTINUOUS
 62
    7
 10
135.63799786079363
 20
222.9069422796091
 40
0.5497942744074638
 50
298.83203125
 51
0.9467620849609358
  0
ARC
  8
_0-0_0
  6
CONTINUOUS
 62
    7
 10
80.198635463728635
 20
206.99005401683468
 40
0.532908632948592
 50
178.54194641113281
 51
241.6787109375
  0
ARC
  8
_0-0_0
  6
CONTINUOUS
 62
    7
 10
133.28682466611463
 20
239.58480697291571
 40
0.0489311010853663
 50
246.3819580078125
 51
300.88578796386719
  0
ARC
  8
_0-0_0
  6
CONTINUOUS
 62
    7
 10
83.318703163264104
 20
226.54020017128988
 40
0.0561448085952448
 50
122.03228759765618
 51
186.6385498046875
  0
ARC
  8
_0-0_0
  6
CONTINUOUS
 62
    7
 10
120.66222221942964
 20
244.9499951591489
 40
0.2895329610721483
 50
300.75784301757812
 51
359.03218078613281
  0
ARC
  8
_0-0_0
  6
CONTINUOUS
 62
    7
 10
120.71878696288404
 20
244.92171278742171
 40
0.2895329610721483
 50
300.75784301757812
 51
359.03218078613281
  0
ARC
  8
_0-0_0
  6
CONTINUOUS
 62
    7
 10
125.81827426757154
 20
242.22939430927551
 40
0.0723832402680369
 50
120.7578430175781
 51
179.03218078613281
  0
ARC
  8
_0-0_0
  6
CONTINUOUS
 62
    7
 10
125.81990737040094
 20
242.2351844011252
 40
0.1447462793943044
 50
152.82513427734369
 51
178.66778564453119
  0
ARC
  8
_0-0_0
  6
CONTINUOUS
 62
    7
 10
126.45466474740684
 20
241.91118669736682
 40
0.0723832402680369
 50
120.7578430175781
 51
179.03218078613281
  0
ARC
  8
_0-0_0
  6
CONTINUOUS
 62
    7
 10
132.24463287715764
 20
239.15878983028477
 40
0.2895329610721483
 50
300.75784301757812
 51
359.03218078613281
  0
ARC
  8
_0-0_0
  6
CONTINUOUS
 62
    7
 10
132.30119762061204
 20
239.13050745855759
 40
0.2895329610721483
 50
300.75784301757812
 51
359.03218078613281
  0
ARC
  8
_0-0_0
  6
CONTINUOUS
 62
    7
 10
132.46176132152004
 20
239.54239578731608
 40
0.0723832402680369
 50
0.967803955078125
 51
59.242141723632813
  0
ARC
  8
_0-0_0
  6
CONTINUOUS
 62
    7
 10
132.45052755357233
 20
239.55600497756086
 40
0.1401907044488029
 50
1.0711212158203121
 51
22.579559326171868
  0
ARC
  8
_0-0_0
  6
CONTINUOUS
 62
    7
 10
94.772964736849403
 20
220.6979974949808
 40
0.0723832402680369
 50
0.967803955078125
 51
59.242141723632813
  0
ARC
  8
_0-0_0
  6
CONTINUOUS
 62
    7
 10
119.13754752031645
 20
238.63817644346051
 40
0.2916058495238019
 50
290.68045043945313
 51
339.10873413085932
  0
ARC
  8
_0-0_0
  6
CONTINUOUS
 62
    7
 10
100.31237530219994
 20
229.6861500762729
 40
0.4717872271666657
 50
196.27360534667969
 51
249.69108581542969
  0
ARC
  8
_0-0_0
  6
CONTINUOUS
 62
    7
 10
97.924333573948246
 20
228.03156947027639
 40
0.2916058495238019
 50
290.68045043945313
 51
339.10873413085932
  0
ARC
  8
_0-0_0
  6
CONTINUOUS
 62
    7
 10
83.410676545337594
 20
226.05390668786509
 40
0.0978622021707327
 50
246.3819580078125
 51
300.88578796386719
  0
ARC
  8
_0-0_0
  6
CONTINUOUS
 62
    7
 10
82.684762337672893
 20
226.10735368955417
 40
0.0723832402680369
 50
120.7578430175781
 51
179.03218078613281
  0
ARC
  8
_0-0_0
  6
CONTINUOUS
 62
    7
 10
82.467633893310577
 20
225.80792676018339
 40
0.1447664805360741
 50
300.75784301757812
 51
359.03218078613281
  0
ARC
  8
_0-0_0
  6
CONTINUOUS
 62
    7
 10
82.469291740122216
 20
225.81463237937689
 40
0.0723832402680369
 50
300.75784301757812
 51
359.03218078613281
  0
ARC
  8
_0-0_0
  6
CONTINUOUS
 62
    7
 10
82.6916164207599
 20
226.11225299804238
 40
0.1500041581488944
 50
128.49769592285153
 51
178.37219238281253
  0
ARC
  8
_0-0_0
  6
CONTINUOUS
 62
    7
 10
93.993479807584222
 20
220.0450038030466
 40
0.1447664805360741
 50
300.75784301757812
 51
359.03218078613281
  0
ARC
  8
_0-0_0
  6
CONTINUOUS
 62
    7
 10
94.210608251946553
 20
220.34443073241738
 40
0.0723832402680369
 50
120.7578430175781
 51
179.03218078613281
  0
ARC
  8
_0-0_0
  6
CONTINUOUS
 62
    7
 10
92.091830538686409
 20
225.44869362568178
 40
0.3469313640852231
 50
243.56053161621088
 51
307.7281494140625
  0
ARC
  8
_0-0_0
  6
CONTINUOUS
 62
    7
 10
90.121541462989597
 20
223.85973406064798
 40
0.0571968144661669
 50
354.02529907226562
 51
57.303833007812514
  0
ARC
  8
_0-0_0
  6
CONTINUOUS
 62
    7
 10
94.993087203065656
 20
220.26270135900108
 40
0.0978622021707327
 50
246.3819580078125
 51
300.88578796386719
  0
ARC
  8
_0-0_0
  6
CONTINUOUS
 62
    7
 10
123.83670193596254
 20
227.4248965131396
 40
1.366425430452501
 50
66.1019287109375
 51
113.89805603027339
  0
ARC
  8
_0-0_0
  6
CONTINUOUS
 62
    7
 10
123.78706550754194
 20
228.97510700194869
 40
0.5869389063603166
 50
181.4226837158204
 51
210.8460235595704
  0
ARC
  8
_0-0_0
  6
CONTINUOUS
 62
    7
 10
123.83670193596254
 20
227.5242930898921
 40
1.5709194621524289
 50
66.1019287109375
 51
113.89805603027339
  0
ARC
  8
_0-0_0
  6
CONTINUOUS
 62
    7
 10
123.88633836438314
 20
228.97510700194869
 40
0.5869389063603166
 50
329.15394592285162
 51
358.57728576660162
  0
ARC
  8
_0-0_0
  6
CONTINUOUS
 62
    7
 10
123.83670193596254
 20
228.37674802285238
 40
1.5709194621524289
 50
66.1019287109375
 51
113.89805603027339
  0
ARC
  8
_0-0_0
  6
CONTINUOUS
 62
    7
 10
122.19607693596254
 20
228.179612716159
 40
0.5869389063603166
 50
181.4226837158204
 51
210.8460235595704
  0
ARC
  8
_0-0_0
  6
CONTINUOUS
 62
    7
 10
125.47735167994485
 20
228.179612716159
 40
0.5869389063603166
 50
329.15394592285162
 51
358.57728576660162
  0
ARC
  8
_0-0_0
  6
CONTINUOUS
 62
    7
 10
122.60900451197614
 20
227.30971327570288
 40
0.5079738513843431
 50
208.5657653808594
 51
241.01715087890619
  0
ARC
  8
_0-0_0
  6
CONTINUOUS
 62
    7
 10
125.06439935994904
 20
227.30971327570288
 40
0.5079738513843431
 50
298.98283386230469
 51
331.43421936035168
  0
ARC
  8
_0-0_0
  6
CONTINUOUS
 62
    7
 10
123.83670193596254
 20
226.03957992213449
 40
0.1745466122756133
 50
66.1019287109375
 51
113.89805603027339
  0
ARC
  8
_0-0_0
  6
CONTINUOUS
 62
    7
 10
92.016905760392476
 20
202.03425501715139
 40
0.1745466122756133
 50
246.1019287109375
 51
293.89805603027332
  0
ARC
  8
_0-0_0
  6
CONTINUOUS
 62
    7
 10
92.016905760392476
 20
202.16416092403477
 40
0.1745466122756133
 50
246.1019287109375
 51
293.89805603027332
  0
ARC
  8
_0-0_0
  6
CONTINUOUS
 62
    7
 10
90.444252479670382
 20
201.37042346098579
 40
0.1897187208807145
 50
237.77099609375
 51
301.39181518554687
  0
ARC
  8
_0-0_0
  6
CONTINUOUS
 62
    7
 10
93.589559041114597
 20
201.37042346098579
 40
0.1897187208807145
 50
238.60816955566415
 51
302.22898864746094
  0
ARC
  8
_0-0_0
  6
CONTINUOUS
 62
    7
 10
133.75047740576835
 20
224.04303748125608
 40
0.5869389063603166
 50
329.15394592285162
 51
358.57728576660162
  0
ARC
  8
_0-0_0
  6
CONTINUOUS
 62
    7
 10
133.33754982975483
 20
223.17313804079998
 40
0.5079738513843431
 50
298.98283386230469
 51
331.43421936035168
  0
ARC
  8
_0-0_0
  6
CONTINUOUS
 62
    7
 10
135.34149072133005
 20
223.24754319546639
 40
0.5869389063603166
 50
329.15394592285162
 51
358.57728576660162
  0
ARC
  8
_0-0_0
  6
CONTINUOUS
 62
    7
 10
133.68468315692965
 20
221.43123592139548
 40
0.2031696003836553
 50
240.19052124023437
 51
292.54170227050781
  0
ARC
  8
_0-0_0
  6
CONTINUOUS
 62
    7
 10
135.79757180241103
 20
223.70889474476968
 40
0.3985597072420892
 50
8.4162445068359375
 51
70.862289428710938
  0
ARC
  8
_0-0_0
  6
CONTINUOUS
 62
    7
 10
82.516057866600249
 20
207.2632275810239
 40
0.5079738513843431
 50
208.5657653808594
 51
241.01715087890619
  0
ARC
  8
_0-0_0
  6
CONTINUOUS
 62
    7
 10
82.103130290586734
 20
208.13312702147988
 40
0.5869389063603166
 50
181.4226837158204
 51
210.8460235595704
  0
ARC
  8
_0-0_0
  6
CONTINUOUS
 62
    7
 10
80.51214171900736
 20
207.33763273569028
 40
0.5869389063603166
 50
181.4226837158204
 51
210.8460235595704
  0
ARC
  8
_0-0_0
  6
CONTINUOUS
 62
    7
 10
82.169444163052972
 20
205.51301148357879
 40
0.1957244043414657
 50
246.3819580078125
 51
300.88578796386719
  0
ARC
  8
_0-0_0
  6
CONTINUOUS
 62
    7
 10
80.056035893943999
 20
207.7989842849934
 40
0.3985597072420892
 50
109.1376953125
 51
171.58374023437503
  0
ARC
  8
_0-0_0
  6
CONTINUOUS
 62
    7
 10
133.75047740576835
 20
224.05169787504838
 40
0.5869389063603166
 50
329.15394592285162
 51
358.57728576660162
  0
ARC
  8
_0-0_0
  6
CONTINUOUS
 62
    7
 10
133.33754982975483
 20
223.18179843459228
 40
0.5079738513843431
 50
298.98283386230469
 51
331.43421936035168
  0
ARC
  8
_0-0_0
  6
CONTINUOUS
 62
    7
 10
134.32587396932405
 20
224.87344552601959
 40
0.0114393624401575
 50
354.02529907226562
 51
57.303833007812514
  0
ARC
  8
_0-0_0
  6
CONTINUOUS
 62
    7
 10
132.22503564320493
 20
222.06903680821978
 40
0.009786220066048
 50
246.3819580078125
 51
300.88578796386719
  0
ARC
  8
_0-0_0
  6
CONTINUOUS
 62
    7
 10
91.881902593162764
 20
201.91882433989198
 40
0.0289532955031137
 50
300.75784301757812
 51
359.03218078613281
  0
ARC
  8
_0-0_0
  6
CONTINUOUS
 62
    7
 10
91.899470820569874
 20
202.01478150310999
 40
0.0114393624401575
 50
354.02529907226562
 51
57.303833007812514
  0
ARC
  8
_0-0_0
  6
CONTINUOUS
 62
    7
 10
90.442594632858729
 20
201.38509664246808
 40
0.1957244043414657
 50
246.3819580078125
 51
300.88578796386719
  0
ARC
  8
_0-0_0
  6
CONTINUOUS
 62
    7
 10
82.103130290586734
 20
208.14178741527209
 40
0.5869389063603166
 50
181.4226837158204
 51
210.8460235595704
  0
ARC
  8
_0-0_0
  6
CONTINUOUS
 62
    7
 10
82.516057866600249
 20
207.27188797481608
 40
0.5079738513843431
 50
208.5657653808594
 51
241.01715087890619
  0
ARC
  8
_0-0_0
  6
CONTINUOUS
 62
    7
 10
83.628572053150094
 20
206.15912634844358
 40
0.009786220066048
 50
239.11419677734369
 51
293.61802673339838
  0
ARC
  8
_0-0_0
  6
CONTINUOUS
 62
    7
 10
92.151933671604482
 20
201.91882433989198
 40
0.0289532955031137
 50
180.9678039550781
 51
239.24214172363281
  0
ARC
  8
_0-0_0
  6
CONTINUOUS
 62
    7
 10
92.134043772427944
 20
202.01492996700358
 40
0.0111453955036562
 50
121.76026916503901
 51
186.91056823730469
  0
ARC
  8
_0-0_0
  6
CONTINUOUS
 62
    7
 10
93.591736511553805
 20
201.39341062050858
 40
0.2031696003836553
 50
240.19052124023437
 51
292.54170227050781
  0
ARC
  8
_0-0_0
  6
CONTINUOUS
 62
    7
 10
91.760582848124741
 20
200.90159922903908
 40
0.1957381899292404
 50
188.37582397460929
 51
251.5752868652344
  0
ARC
  8
_0-0_0
  6
CONTINUOUS
 62
    7
 10
135.79727487462395
 20
222.85601916411079
 40
0.3990524362873387
 50
8.5952911376953125
 51
70.840530395507813
  0
ARC
  8
_0-0_0
  6
CONTINUOUS
 62
    7
 10
81.261265782035224
 20
206.15348472048748
 40
0.1976516440108016
 50
189.80735778808599
 51
251.38449096679687
  0
ARC
  8
_0-0_0
  6
CONTINUOUS
 62
    7
 10
80.04613830103861
 20
206.95486807405598
 40
0.3874953534152055
 50
108.1596221923828
 51
172.7193298339844
  0
ARC
  8
_0-0_0
  6
CONTINUOUS
 62
    7
 10
81.653618736796659
 20
192.65890860139967
 40
0.2752188331372029
 50
268.40040588378901
 51
358.41691589355469
  0
CIRCLE
  8
_0-0_0
  6
CONTINUOUS
 62
    7
 10
83.204200385339675
 20
129.22069514991108
 40
0.200000002577498
  0
ARC
  8
_0-0_0
  6
CONTINUOUS
 62
    7
 10
83.204200385339675
 20
129.22069514991108
 40
0.2800000036084974
 50
14.055221557617189
 51
165.94474792480469
  0
CIRCLE
  8
_0-0_0
  6
CONTINUOUS
 62
    7
 10
143.10419758102174
 20
144.12069234559308
 40
0.200000002577498
  0
ARC
  8
_0-0_0
  6
CONTINUOUS
 62
    7
 10
143.10419758102174
 20
144.12069234559308
 40
0.2800000036084974
 50
270
 51
345.94476318359381
  0
ARC
  8
_0-0_0
  6
CONTINUOUS
 62
    7
 10
143.10419758102174
 20
144.12069234559308
 40
0.2800000036084974
 50
194.05522155761722
 51
270
  0
ARC
  8
_0-0_0
  6
CONTINUOUS
 62
    7
 10
83.204200385339675
 20
144.12069234559308
 40
0.2800000036084974
 50
270
 51
345.94474792480469
  0
ARC
  8
_0-0_0
  6
CONTINUOUS
 62
    7
 10
83.204200385339675
 20
144.12069234559308
 40
0.2800000036084974
 50
194.05522155761722
 51
270
  0
CIRCLE
  8
_0-0_0
  6
CONTINUOUS
 62
    7
 10
83.204200385339675
 20
144.12069234559308
 40
0.200000002577498
  0
ARC
  8
_0-0_0
  6
CONTINUOUS
 62
    7
 10
143.10419758102174
 20
129.22069514991108
 40
0.2800000036084974
 50
14.055252075195311
 51
165.9447326660156
  0
CIRCLE
  8
_0-0_0
  6
CONTINUOUS
 62
    7
 10
143.10419758102174
 20
129.22069514991108
 40
0.200000002577498
  0
ARC
  8
_0-0_0
  6
CONTINUOUS
 62
    7
 10
84.754200550299586
 20
130.77069531487089
 40
0.100000001288749
 50
180
 51
270
  0
CIRCLE
  8
_0-0_0
  6
CONTINUOUS
 62
    7
 10
83.229197993421423
 20
129.2456865719972
 40
0.5000000064437455
  0
CIRCLE
  8
_0-0_0
  6
CONTINUOUS
 62
    7
 10
83.229197993421423
 20
129.2456865719972
 40
0.4500000057993707
  0
ARC
  8
_0-0_0
  6
CONTINUOUS
 62
    7
 10
82.554200715259455
 20
128.5706831078397
 40
0.7828427166552156
 50
180
 51
270
  0
CIRCLE
  8
_0-0_0
  6
CONTINUOUS
 62
    7
 10
83.204200385339675
 20
129.2456865719972
 40
0.3250000041884345
  0
CIRCLE
  8
_0-0_0
  6
CONTINUOUS
 62
    7
 10
83.204200385339675
 20
129.2456865719972
 40
0.2750000035440599
  0
ARC
  8
_0-0_0
  6
CONTINUOUS
 62
    7
 10
82.554200715259455
 20
128.5706831078397
 40
0.9000000115987415
 50
180
 51
270
  0
ARC
  8
_0-0_0
  6
CONTINUOUS
 62
    7
 10
141.55419741606184
 20
142.57069218063319
 40
0.100000001288749
 50
0
 51
90
  0
CIRCLE
  8
_0-0_0
  6
CONTINUOUS
 62
    7
 10
143.07919378694433
 20
144.09568855151579
 40
0.5000000064437455
  0
CIRCLE
  8
_0-0_0
  6
CONTINUOUS
 62
    7
 10
143.07919378694433
 20
144.09568855151579
 40
0.4500000057993707
  0
ARC
  8
_0-0_0
  6
CONTINUOUS
 62
    7
 10
143.75419725110194
 20
144.77069201567329
 40
0.7828427166552156
 50
0
 51
90
  0
CIRCLE
  8
_0-0_0
  6
CONTINUOUS
 62
    7
 10
143.10419758102174
 20
144.09568855151579
 40
0.3250000041884345
  0
CIRCLE
  8
_0-0_0
  6
CONTINUOUS
 62
    7
 10
143.10419758102174
 20
144.09568855151579
 40
0.2750000035440599
  0
ARC
  8
_0-0_0
  6
CONTINUOUS
 62
    7
 10
143.75419725110194
 20
144.77069201567329
 40
0.9000000115987415
 50
0
 51
90
  0
ARC
  8
_0-0_0
  6
CONTINUOUS
 62
    7
 10
84.754200550299586
 20
142.57069218063319
 40
0.100000001288749
 50
90
 51
180
  0
CIRCLE
  8
_0-0_0
  6
CONTINUOUS
 62
    7
 10
83.229197993421423
 20
144.09568855151579
 40
0.5000000064437455
  0
CIRCLE
  8
_0-0_0
  6
CONTINUOUS
 62
    7
 10
83.229197993421423
 20
144.09568855151579
 40
0.4500000057993707
  0
ARC
  8
_0-0_0
  6
CONTINUOUS
 62
    7
 10
82.554200715259455
 20
144.77069201567329
 40
0.7828427166552156
 50
90
 51
180
  0
CIRCLE
  8
_0-0_0
  6
CONTINUOUS
 62
    7
 10
83.204200385339675
 20
144.09568855151579
 40
0.3250000041884345
  0
CIRCLE
  8
_0-0_0
  6
CONTINUOUS
 62
    7
 10
83.204200385339675
 20
144.09568855151579
 40
0.2750000035440599
  0
ARC
  8
_0-0_0
  6
CONTINUOUS
 62
    7
 10
82.554200715259455
 20
144.77069201567329
 40
0.9000000115987415
 50
90
 51
180
  0
ARC
  8
_0-0_0
  6
CONTINUOUS
 62
    7
 10
141.55419741606184
 20
130.77069531487089
 40
0.100000001288749
 50
270
 51
0
  0
CIRCLE
  8
_0-0_0
  6
CONTINUOUS
 62
    7
 10
143.07919378694433
 20
129.2456865719972
 40
0.5000000064437455
  0
CIRCLE
  8
_0-0_0
  6
CONTINUOUS
 62
    7
 10
143.07919378694433
 20
129.2456865719972
 40
0.4500000057993707
  0
ARC
  8
_0-0_0
  6
CONTINUOUS
 62
    7
 10
143.75419725110194
 20
128.5706831078397
 40
0.7828427166552156
 50
270
 51
0
  0
CIRCLE
  8
_0-0_0
  6
CONTINUOUS
 62
    7
 10
143.10419758102174
 20
129.2456865719972
 40
0.3250000041884345
  0
CIRCLE
  8
_0-0_0
  6
CONTINUOUS
 62
    7
 10
143.10419758102174
 20
129.2456865719972
 40
0.2750000035440599
  0
ARC
  8
_0-0_0
  6
CONTINUOUS
 62
    7
 10
143.75419725110194
 20
128.5706831078397
 40
0.9000000115987415
 50
270
 51
0
  0
ARC
  8
_0-0_0
  6
CONTINUOUS
 62
    7
 10
54.665518117867151
 20
145.27069366527218
 40
0.4000000051549961
 50
90
 51
135
  0
ARC
  8
_0-0_0
  6
CONTINUOUS
 62
    7
 10
54.665518117867151
 20
128.07069383023199
 40
0.4000000051549961
 50
225
 51
270
  0
ARC
  8
_0-0_0
  6
CONTINUOUS
 62
    7
 10
55.639837163475249
 20
127.69068812262009
 40
0.0200000002577498
 50
299.99998474121088
 51
0
  0
ARC
  8
_0-0_0
  6
CONTINUOUS
 62
    7
 10
55.639837163475249
 20
127.95068551625388
 40
0.0200000002577498
 50
0
 51
59.999969482421875
  0
ARC
  8
_0-0_0
  6
CONTINUOUS
 62
    7
 10
55.639837163475249
 20
145.6506870008929
 40
0.0200000002577498
 50
0
 51
59.999969482421875
  0
ARC
  8
_0-0_0
  6
CONTINUOUS
 62
    7
 10
55.639837163475249
 20
145.39068960725899
 40
0.0200000002577498
 50
299.99998474121088
 51
0
  0
TEXT
  8
_0-0_0
 62
    7
 10
339.95041620565212
 20
116.9215874179115
 40
3
 41
1
 50
0
  1
4-C3
  0
TEXT
  8
_0-0_0
 62
    7
 10
300.98099729333165
 20
109.66196283361037
 40
3
 41
1
 50
0
  1
300
  0
TEXT
  8
_0-0_0
 62
    7
 10
266.58582449145376
 20
132.91292867371808
 40
3
 41
1
 50
90.000002504478104
  1
163
  0
TEXT
  8
_0-0_0
 62
    7
 10
257.06815078807284
 20
131.17787568860408
 40
3
 41
1
 50
90.000002504478147
  1
164.6
  0
TEXT
  8
_0-0_0
 62
    7
 10
344.36816157707432
 20
132.70978057933468
 40
3
 41
1
 50
90.000002504478104
  1
149
  0
TEXT
  8
_0-0_0
 62
    7
 10
295.11515174196973
 20
119.0468356825335
 40
3
 41
1
 50
0
  1
100
  0
TEXT
  8
_0-0_0
 62
    7
 10
300.98991749893776
 20
83.046828259338781
 40
3
 41
1
 50
0
  1
599
  0
TEXT
  8
_0-0_0
 62
    7
 10
298.00858188475905
 20
92.433618766887378
 40
3
 41
1
 50
0
  1
447.75
  0
TEXT
  8
_0-0_0
 62
    7
 10
300.96893460197816
 20
158.09490581687689
 40
3
 41
1
 50
0
  1
533
  0
TEXT
  8
_0-0_0
 62
    7
 10
300.97555361723374
 20
165.1732683591066
 40
3
 41
1
 50
0
  1
553
  0
TEXT
  8
_0-0_0
 62
    7
 10
300.99407448795802
 20
173.50683126160868
 40
3
 41
1
 50
0
  1
613
  0
TEXT
  8
_0-0_0
 62
    7
 10
300.98030446182833
 20
152.0337683855002
 40
3
 41
1
 50
0
  1
513
  0
TEXT
  8
_0-0_0
 62
    7
 10
301.21966537425442
 20
146.76323830341607
 40
3
 41
1
 50
0
  1
150
  0
TEXT
  8
_0-0_0
 62
    7
 10
316.06824631727835
 20
122.4915328821746
 40
3
 41
1
 50
90.000002504478203
  1
60
  0
TEXT
  8
_0-0_0
 62
    7
 10
329.83791439109342
 20
122.1894575219022
 40
3
 41
1
 50
0
  1
23
  0
TEXT
  8
_0-0_0
 62
    7
 10
328.83923411385905
 20
220.33892849556139
 40
3
 41
1
 50
90.000002504477919
  1
9
  0
TEXT
  8
_0-0_0
 62
    7
 10
328.83923426138495
 20
222.80631675173748
 40
3
 41
1
 50
90.000002504478203
  1
～12
  0
TEXT
  8
_0-0_0
 62
    7
 10
110.17569614257154
 20
152.40082061839718
 40
3
 41
1
 50
0
  1
630
  0
TEXT
  8
_0-0_0
 62
    7
 10
73.410260157254442
 20
133.3638258905163
 40
3
 41
1
 50
89.999947862964746
  1
180
  0
TEXT
  8
_0-0_0
 62
    7
 10
59.91519603369801
 20
152.25478163507788
 40
3
 41
1
 50
0
  1
20
  0
TEXT
  8
_0-0_0
 62
    7
 10
110.52919898318073
 20
109.06322032278899
 40
3
 41
1
 50
0
  1
570
  0
TEXT
  8
_0-0_0
 62
    7
 10
162.77784106569655
 20
134.05569031658649
 40
3
 41
1
 50
90.00000249999988
  1
120
  0
TEXT
  8
_0-0_0
 62
    7
 10
47.118604867794602
 20
255.32056928552129
 40
3
 41
1
 50
0
  1
取付図
  0
TEXT
  8
_0-0_0
 62
    7
 10
344.22808162742149
 20
229.57591563528908
 40
3
 41
1
 50
0
  1
ボルト引き込み代 9～12mm
  0
TEXT
  8
_0-0_0
 62
    7
 10
46.472249986301733
 20
163.8613671634773
 40
3
 41
1
 50
0
  1
本体外形
  0
TEXT
  8
_0-0_0
 62
    7
 10
255.71477431376024
 20
180.37289043601749
 40
3
 41
1
 50
0
  1
φ20穴(制御用)
  0
TEXT
  8
_0-0_0
 62
    7
 10
316.39745666041364
 20
190.29219618585918
 40
3
 41
1
 50
0
  1
別置型電源用穴寸法
  0
TEXT
  8
_0-0_0
 62
    7
 10
327.63179784363786
 20
179.84215676044738
 40
3
 41
1
 50
0
  1
2-12x20小判穴(取付けボルト用)
  0
TEXT
  8
_0-0_0
 62
    7
 10
297.52505725294947
 20
69.015777860795765
 40
3
 41
1
 50
0
  1
φ4.5穴、片側ダルマ穴(木ネジ取付け用)
  0
TEXT
  8
_0-0_0
 62
    7
 10
297.49363322027438
 20
58.027532077170349
 40
3
 41
1
 50
0
  1
4-M4,バーリング加工
  0
TEXT
  8
_0-0_0
 62
    7
 10
209.37407797681772
 20
243.95310853530032
 40
3
 41
1
 50
0
  1
取付け寸法 (取付け用ベース板金)
  0
LINE
  8
_0-0_0
  6
CONTINUOUS
 62
    7
 10
304.81960714341614
 20
25.999998483693588
 11
304.81960714341614
 21
4.9999991796180723
  0
LINE
  8
_0-0_0
  6
CONTINUOUS
 62
    7
 10
324.25311016548125
 20
25.999998483693588
 11
324.25311016548125
 21
11.999999463142871
  0
LINE
  8
_0-0_0
  6
CENTER2
 62
    7
 10
369.04084498589981
 20
10.859414502568001
 11
369.04084498589981
 21
5.7578962582112752
  0
LINE
  8
_0-0_0
  6
CENTER2
 62
    7
 10
366.51574633989037
 20
8.3086555737019978
 11
371.56594363190897
 21
8.3086555737019978
  0
LINE
  8
_0-0_0
  6
CENTER2
 62
    7
 10
372.0448386646371
 20
8.3086555737019978
 11
380.09902963539298
 21
8.3086555737019978
  0
LINE
  8
_0-0_0
  6
CONTINUOUS
 62
    7
 10
372.43665962377986
 20
9.5586550582023619
 11
372.43665962377986
 21
7.0586553159521657
  0
LINE
  8
_0-0_0
  6
CONTINUOUS
 62
    7
 10
372.43665962377986
 20
7.0586553159521657
 11
379.436657974181
 21
6.208655449982075
  0
LINE
  8
_0-0_0
  6
CONTINUOUS
 62
    7
 10
379.436657974181
 20
6.208655449982075
 11
379.436657974181
 21
10.408655697421892
  0
LINE
  8
_0-0_0
  6
CONTINUOUS
 62
    7
 10
379.436657974181
 20
10.408655697421892
 11
372.43665962377986
 21
9.5586550582023619
  0
CIRCLE
  8
_0-0_0
  6
CONTINUOUS
 62
    7
 10
369.04084498589981
 20
8.3086555737019978
 40
1.249999967781273
  0
CIRCLE
  8
_0-0_0
  6
CONTINUOUS
 62
    7
 10
369.04084498589981
 20
8.3086555737019978
 40
2.0999999304075501
  0
TEXT
  8
_0-0_0
 62
    7
 10
380.87633488694286
 20
6.9969483300544084
 40
3
 41
1
 50
0
  1
Unit ： mm
  0
LINE
  8
_0-0_0
  6
CONTINUOUS
 62
    7
 10
289.81960714341614
 20
25.999998483693588
 11
289.81960714341614
 21
4.9999991796180723
  0
LINE
  8
_0-0_0
  6
CONTINUOUS
 62
    7
 10
415.00000727010524
 20
25.999998483693588
 11
289.81960714341614
 21
25.999998483693588
  0
LINE
  8
_0-0_0
  6
CONTINUOUS
 62
    7
 10
289.81960714341614
 20
18.99999858679351
 11
415.00000727010524
 21
18.99999858679351
  0
TEXT
  8
_0-0_0
 62
    7
 10
11.215676546750331
 20
48.370578916146982
 40
3
 41
1
 50
0
  1
本器具同士の連結数
  0
TEXT
  8
_0-0_0
 62
    7
 10
10.479648006479124
 20
41.536028185057091
 40
3
 41
1
 50
0
  1
<100V入力時>　接続台数：２２台（64W）
  0
TEXT
  8
_0-0_0
 62
    7
 10
10.584794940803562
 20
35.437505994238435
 40
3
 41
1
 50
0
  1
<200V入力時>　接続台数：４３台（64W）
  0
TEXT
  8
_0-0_0
 62
    7
 10
290.74294309671637
 20
10.576841835754976
 40
3
 41
1
 50
0
  1
１：10
  0
TEXT
  8
_0-0_0
 62
    7
 10
291.20613786333968
 20
20.714825216887846
 40
3
 41
1
 50
0
  1
Scale
  0
ENDSEC
  0
EOF
